» » »

Anberlin - Godspeed Tabs

Artists:  A B C D E F G H I J K L M N O P Q R S T U V W X Y Z # 

Godspeed Tabs

(ver. 3) Click to play this song!
Anberlin
 Rating:
4/5 (4 votes)

 Godspeed lessons Tabs too difficult? Try these video lessons and learn fast
 
                Anberlin - Godspeed
Copyright © 2007 Tooth & Nail Records
Drop C Tuning C-G-C-F-A-D

palm mute=...etc
b=bend
h=hammer on
p=pull off
~=let it ring

Intro
Gtr. 1
D[----------------------]
A[----------------------]
F[----------------------]
C[-0----3----8----10----]
G[-0----3----8----10----]
C[-0----3----8----10----]

Gtr. 2
D[-10/10/10/10/10/10/10/10/10/10/10/10/10/10/10/10/10----]
A[--x/10/-x/10/-x/10/-x/10/-x/-8/-x/-8/-x/-8/-x/-8/-x----]
F[--7/-7/-7/-7/-7/-7/-7/-7--7/-7/-7/-7/-7/-7/-7/-7/-7----]
C[-------------------------------------------------------]
G[-------------------------------------------------------]
C[-------------------------------------------------------]

D[-8/8/8/8/8/8/8/8/8/8/8/8/8/8/8/8----]
A[-8/x/8/x/8/x/8/x/6/x/6/x/6/x/6/x----]
F[-5/5/5/5/5/5/5/5/5/5/5/5/5/5/5/5----]
C[------------------------------------]
G[------------------------------------]
C[------------------------------------]

Then

Gtr. 1
D[-------------]
A[-------------]
F[-------------]
C[-0-3-8-10----]
G[-0-3-8-10----]
C[-0-3-8-10----]

Gtr. 2
D[----------------------------]
A[-6/5--8/5--6/5--8/5---------]
F[----5----5----5----5--10----]
C[-----------------------x----]
G[-----------------------8----]
C[----------------------------]

Then

Gtr. 1
D[----------------------]
A[----------------------]
F[----------------------]
C[-0----3----8----10----]
G[-0----3----8----10----]
C[-0----3----8----10----]

Gtr. 2
D[-10/10/10/10/10/10/10/10/10/10/10/10/10/10/10/10/10----]
A[--x/10/-x/10/-x/10/-x/10/-x/-8/-x/-8/-x/-8/-x/-8/-x----]
F[--7/-7/-7/-7/-7/-7/-7/-7--7/-7/-7/-7/-7/-7/-7/-7/-7----]
C[-------------------------------------------------------]
G[-------------------------------------------------------]
C[-------------------------------------------------------]

D[-8/8/8/8/8/8/8/8/8/8/8/8/8/8/8/8----]
A[-8/x/8/x/8/x/8/x/6/x/6/x/6/x/6/x----]
F[-5/5/5/5/5/5/5/5/5/5/5/5/5/5/5/5----]
C[------------------------------------]
G[------------------------------------]
C[------------------------------------]

Then

Gtr. 1
D[-------------]
A[-------------]
F[-------------]
C[-0-3-8-10----]
G[-0-3-8-10----]
C[-0-3-8-10----]

Gtr. 2
D[----------------------------]
A[-6/5--8/5--6/5--8/5---------]
F[----5----5----5----5--10----]
C[-----------------------x----]
G[-----------------------8----]
C[----------------------------]

Verse 1
Gtr. 1
D[-5--------3----1----]
A[-6--------5----1----]
F[-7--------5----3----]
C[-7--------5----3----]
G[-5--------3----1----]
C[--------------------]

Then

Gtr. 2
D[-----------------------]
A[-----------------------]
F[-----5-----------------]
C[-0---5/0----10----8----]
G[-0---3/0----10----8----]
C[-0-----0----10----8----]

Gtr. 1
D[-5--------3----1----]
A[-6--------5----1----]
F[-7--------5----3----]
C[-7--------5----3----]
G[-5--------3----1----]
C[--------------------]

Pre-Chorus
D[-------------]
A[-------------]
F[-------------]
C[-0-3-8-10----]
G[-0-3-8-10----]
C[-0-3-8-10----]

Then
D[---------------------------------]
A[-----------------------------8b--]
F[----------------------------12b--]
C[-7-10----2-7---7-10----0/0-------]
G[-8--8----3-5---8--8----0/0-------]
C[-7--8----2-5---7--8----0/0-------]
     ...           ...   ...

Chorus
Gtr. 1
D[----------------------]
A[----------------------]
F[----------------------]
C[-0----3----8----10----]
G[-0----3----8----10----]
C[-0----3----8----10----]

Gtr. 2
D[-10/10/10/10/10/10/10/10/10/10/10/10/10/10/10/10/10----]
A[--x/10/-x/10/-x/10/-x/10/-x/-8/-x/-8/-x/-8/-x/-8/-x----]
F[--7/-7/-7/-7/-7/-7/-7/-7--7/-7/-7/-7/-7/-7/-7/-7/-7----]
C[-------------------------------------------------------]
G[-------------------------------------------------------]
C[-------------------------------------------------------]

D[-8/8/8/8/8/8/8/8/8/8/8/8/8/8/8/8----]
A[-8/x/8/x/8/x/8/x/6/x/6/x/6/x/6/x----]
F[-5/5/5/5/5/5/5/5/5/5/5/5/5/5/5/5----]
C[------------------------------------]
G[------------------------------------]
C[------------------------------------]

Then

Gtr. 1
D[-------------]
A[-------------]
F[-------------]
C[-0-3-8-10----]
G[-0-3-8-10----]
C[-0-3-8-10----]

Gtr. 2
D[----------------------------]
A[-6/5--8/5--6/5--8/5---------]
F[----5----5----5----5--10----]
C[-----------------------x----]
G[-----------------------8----]
C[----------------------------]

Then

Gtr. 1
D[----------------------]
A[----------------------]
F[----------------------]
C[-0----3----8----10----]
G[-0----3----8----10----]
C[-0----3----8----10----]

Gtr. 2
D[-10/10/10/10/10/10/10/10/10/10/10/10/10/10/10/10/10----]
A[--x/10/-x/10/-x/10/-x/10/-x/-8/-x/-8/-x/-8/-x/-8/-x----]
F[--7/-7/-7/-7/-7/-7/-7/-7--7/-7/-7/-7/-7/-7/-7/-7/-7----]
C[-------------------------------------------------------]
G[-------------------------------------------------------]
C[-------------------------------------------------------]

D[-8/8/8/8/8/8/8/8/8/8/8/8/8/8/8/8----]
A[-8/x/8/x/8/x/8/x/6/x/6/x/6/x/6/x----]
F[-5/5/5/5/5/5/5/5/5/5/5/5/5/5/5/5----]
C[------------------------------------]
G[------------------------------------]
C[------------------------------------]

Then

Gtr. 1
D[-------------]
A[-------------]
F[-------------]
C[-0-3-8-10----]
G[-0-3-8-10----]
C[-0-3-8-10----]

Gtr. 2
D[----------------------------]
A[-6/5--8/5--6/5--8/5---------]
F[----5----5----5----5--10----]
C[-----------------------x----]
G[-----------------------8----]
C[----------------------------]

Verse 2
Gtr. 1
D[-5--------3----1----]
A[-6--------5----1----]
F[-7--------5----3----]
C[-7--------5----3----]
G[-5--------3----1----]x2
C[--------------------]

Pre-Chorus 2  (slide the xxxs down the neck so it has  a harmonic sound)
D[----------------------------------------------------]
A[----------------------------------------------------]
F[----------------------------------------------------]
C[-7-10----2-7---7-10----0/0-----------------xxxxxxxx-]
G[-8--8----3-5---8--8----0/0-----------------xxxxxxxx-]
C[-7--8----2-5---7--8----0/0-0/0/0/0/0/0/0/0-xxxxxxxx-]
     ...           ...   ... ...............

Chorus

Bridge
Gtr. 1
D[--------------------------------------]
A[--------------------------------------]
F[--------------------------------------]
C[-8----10----0----3----8----10----0----]
G[-8----10----0----3----8----10----0----]
C[-8----10----0----3----8----10----0----]

Gtr. 2
D[--------------------------------------------------------------]
A[-10b-10b-10b-10b----------10h13p10--------10h13p10------------]
F[-14b-14b-14b-14b-14p12/10---------10h12p10--------10h12p10----]
C[--------------------------------------------------------------]
G[--------------------------------------------------------------]
C[--------------------------------------------------------------]

D[---------------------------------------------------------]
A[-10h13p10--------10h13p10----10b-10b-10b-10b-------------]
F[---------10h12p10--------10--14b-14b-14b-14b-14p12/10----]
C[---------------------------------------------------------]
G[---------------------------------------------------------]
C[---------------------------------------------------------]

D[-13---12--10--8--xx8xx8xx8xx8xx8xx8xx8xx8s10/8xx8xx8xx8xx8xx8xx8xx8xx8-10~-]
A[--x----x---x--x--xxxxxxxxxxxxxxxxxxxxxxxxs-x/xxxxxxxxxxxxxxxxxxxxxxxxx--x~-]
F[-10----9---7--5--xx5xx5xx5xx5xx5xx5xx5xx5s-8/5xx5xx5xx5xx5xx5xx5xx5xx5--8~-]
C[---------------------------------------------------------------------------]
G[---------------------------------------------------------------------------]
C[---------------------------------------------------------------------------]

Then
Gtr. 1
D[-------------]
A[-------------]
F[-------------]
C[-0-3-8-10----]
G[-0-3-8-10----]Stop
C[-0-3-8-10----]

Gtr. 2
D[-17b-17b-17b-17b----]
A[--x---x---x---x-----]
F[-14b-14b-14b-14b----]
C[--------------------]
G[--------------------]
C[--------------------]

Then Bass

Then

Chorus x2

Ending
Gtr. 2
D[----------------------------]
A[-6/5--8/5--6/5--8/5---------]
F[----5----5----5----5--10----]
C[-----------------------x----]
G[-----------------------8----]
C[----------------------------]

Then
Gtr. 1
D[----------------]
A[----------------]
F[----------------]
C[-0-3-8-10----0--]
G[-0-3-8-10----0--]
C[-0-3-8-10----0--]

Gtr. 2
D[-8-----------]
A[-x-----------]
F[-5-----------]
C[-------------]
G[-------------]
C[-------------]


I'm pretty sure this is correct.

It sounds right when i play it,so that's what I'm going with.
            
Submit corrections


        Godspeed lessons Hard to play? Try these video lessons and learn fast Godspeed lessons
        
↑ Back to top | Tablatures and chords for acoustic guitar and electric guitar, ukulele, drums are parodies/interpretations of the original songs. You may use it for private study, scholarship, research or language learning purposes only