» » »

Anberlin - Soft Skeletons Bass

Artists:  A B C D E F G H I J K L M N O P Q R S T U V W X Y Z # 

Soft Skeletons Bass

(ver. 1) Click to play this song!
Anberlin
 Rating:
4/5 (4 votes)

 Soft Skeletons lessons Tabs too difficult? Try these video lessons and learn fast
 
                Band:Anberlin
Album:New Surrender
Tuning:GDAE (Standard)

I noticed there were no tabs for this song. Hope you enjoy. Comments to my email.

Intro 2x (0:00)
G]------------------------------------------------0-0-0-0-0-0-0---|
D]--------------------------------0-0-0-0-0-0-0-0-----------------|
A]2-2-2-2-2-2-2-2-0-0-0-0-0-0-0-0-------------------------------0-|
E]----------------------------------------------------------------|

Verse (0:23)
G]------------------------0~---------------------------------------0~-0-----|
D]----------------0~-------------------------------------0~----0-4----------|
A]2~------0~----------------------0-2~----4-2-0~-----2-0------------------0-|
E]------------------------------3---------------------------------------3---|

(cont.)
G]------------------------------0~--0-----|
D]--------------------0~--0-2-4-----------|
A]2~--2-4-2-0~--0-2-0-------------------0-|
E]------------------------------------3---|

Pre-Chorus (0:56)(just keyboard, no playing)
G]--------------------------------------------------------------------------|
D]--------------------------------------------------------------------------|
A]--------------------------------------------------------------------------|
E]--------------------------------------------------------------------------|

Chorus 2x (1:07)
G]------------------------------------------------0-0-0-0-0-0-0---|
D]--------------------------------0-0-0-0-0-0-2-4-----------------|
A]2-2-2-2-2-2-4-2-0-0-0-0-0-0-2-0-------------------------------0-|
E]----------------------------------------------------------------|

Verse 2x (1:29)
G]-----------------------------0~-0----------------------------------0~-0----|
D]-------------------0~----0-4-----------------------------0~----0-4---------|
A]2~---4-2-0~----2-0------------------0-2~---4-2-0~----2-0-----------------0-|
E]----------------------------------3------------------------------------3---|

Chorus 2x (2:13)
G]------------------------------------------------0-0-0-0-0-0-0---|
D]--------------------------------0-0-0-0-0-0-2-4-----------------|
A]2-2-2-2-2-2-4-2-0-0-0-0-0-0-2-0-------------------------------0-|
E]----------------------------------------------------------------|

Bridge (2:45)
G]0-0-------------------------0~----0-----------------------------------0~--|
D]----0------------0~---0-2-4---------0----------------------0~---0-2-4-----|
A]------2~---0-2-4--------------------------0---0-2~---0-2-4----------------|
E]--------------------------------------3~----3-----------------------------|

(cont.)
G]--0-------------|
D]----0-----------|
A]----------0---0-|
E]------3~----3---|

Chorus 4x (3:14)
G]------------------------------------------------0-0-0-0-0-0-0---|
D]--------------------------------0-0-0-0-0-0-2-4-----------------|
A]2-2-2-2-2-2-4-2-0-0-0-0-0-0-2-0-------------------------------0-|
E]----------------------------------------------------------------|

Outro (3:58)
G]-------------------|
D]-------------------|
A]2~-----------------|
E]-------------------|

Questions? Comments? Mistakes? Please let me know at my email.
            
Submit corrections


        Soft Skeletons lessons Hard to play? Try these video lessons and learn fast Soft Skeletons lessons
        
↑ Back to top | Tablatures and chords for acoustic guitar and electric guitar, ukulele, drums are parodies/interpretations of the original songs. You may use it for private study, scholarship, research or language learning purposes only