» » »

Anberlin - Adelaide Tabs

Artists:  A B C D E F G H I J K L M N O P Q R S T U V W X Y Z # 

Adelaide Tabs

(ver. 1) Click to play this song!
Anberlin
 Rating:
4.6/5 (10 votes)

 Adelaide lessons Tabs too difficult? Try these video lessons and learn fast
 
                -------------------------------------------------------------------------------
-------------------------------------------------------------------------------

Tuning: standard

Intro/Chorus x4
Guitar 1
e|---------------------------------------------------------------------------|
B|---------------------------------------------------------------------------|
G|------16---9------11-----13------------------------------------------------|
D|-13h14-----x-(16)--x-(8)--x-(8)--------------------------------------------|
A|-----------7-------9-----11------------------------------------------------|
E|---------------------------------------------------------------------------|
Guitar 2
e|---------------------------------------------------------------------------|
B|---------------------------------------------------------------------------|
G|---------------------------------------------------------------------------|
D|-----------7------9-----11-------------------------------------------------|
A|-----------7-(16)-9-(8)-11-(8)---------------------------------------------|
E|-----------5------7------9-------------------------------------------------|

Verse x4  (there is some intertwining ie maybe plays in to 1st two lines of prechorus)
Guitar 2
e|---------------------------------------------------------------------------|
B|---------------------------------------------------------------------------|
G|---------------------------------------------------------------------------|
D|--7-7777-7777-7779-9999-11111111-111111------------------------------------|
A|--7-7777-7777-7779-9999-11111111-111111------------------------------------|
E|--5-5555-5555-5557-7777- 9 9 9 9- 9 9 9------------------------------------|

Prechorus x4
Guitar 1
e|---------------------------------------------------------------------------|
B|---------------------------------------------------------------------------|
G|----------16-----------16-----10/12-10/12----------------------------------|
D|--14p13h14--14--14p13h14--14-----------------------------------------------|
A|---------------------------------------------------------------------------|
E|---------------------------------------------------------------------------|

Chorus

Verse

Prechorus

(and before 3rd chorus)  Guitar 2
e|---------------------------------------------------------------------------|
B|---------------------------------------------------------------------------|
G|---------------------------------------------------------------------------|
D|---7777--7777--------------------------------------------------------------|
A|---7777--7777--------------------------------------------------------------|
E|---5555--5555--------------------------------------------------------------|

Chorus

Bridge
Guitar 1
e|--------2~---------2~---------4~---------7~--------------------------------|
B|---------------------------------------------------------------------------|
G|---------------------------------------------------------------------------|
D|-----4~---------2~---------6~---------9~-----------------------------------|
A|--2~---------0~---------4~---------7~--------------------------------------|
E|---------------------------------------------------------------------------|
Guitar 2
e|---------------------------------------------------------------------------|
B|---------------------------------------------------------------------------|
G|---------------------------------------------------------------------------|
D|--9~---------7~--------11~---------14~-------------------------------------|
A|--9~---------7~--------11~---------14~-------------------------------------|
E|--7~---------5~---------9~---------12~-------------------------------------|

Solo
Guitar 1
e|---------------------------------------------------------------------------|
B|---------------------------------------------------------------------------|
G|-------------------------------------131314-14/16161616161616161618p1616---|
D|-141414-14161616-16141414-14161616-16--------------------------------------|
A|---------------------------------------------------------------------------|
E|---------------------------------------------------------------------------|

e|---------------------------------------------------------------------------|
B|------------------------------------19b-19---19b-19---19b-19---------------|
G|----------------------------16~--16-------16-------16-------16-------------|
D|141314-161416-181618-191819------------------------------------------------|
A|---------------------------------------------------------------------------|
E|---------------------------------------------------------------------------|


| /  slide up
| \  slide down
| h  hammer-on
| p  pull-off
| ~  vibrato
| +  harmonic
| x  Mute note
===============================================================================
            
Submit corrections


        Adelaide lessons Hard to play? Try these video lessons and learn fast Adelaide lessons
        
↑ Back to top | Tablatures and chords for acoustic guitar and electric guitar, ukulele, drums are parodies/interpretations of the original songs. You may use it for private study, scholarship, research or language learning purposes only