» » »

Anberlin - Breathe Tabs

Artists:  A B C D E F G H I J K L M N O P Q R S T U V W X Y Z # 

Breathe Tabs

(ver. 1) Click to play this song!
Anberlin
 Rating:
4.7/5 (15 votes)


 Breathe lessons Tabs too difficult? Try these video lessons and learn fast
 
                -------------------------------------------------------------------------------
                             Breathe- Anberlin
-------------------------------------------------------------------------------

Tuning:Standard

  Intro                             X3
e|------0-----------0---------0----------------------------------------------|
B|----0---0-------4---4-----4------------------------------------------------|
G|--2-------2---4-------4h6--------------------------------------------------|
D|---------------------------------------------------------------------------|
A|---------------------------------------------------------------------------|
E|---------------------------------------------------------------------------|


 This on the last time
e|------0-----------0---------7----------------------------------------------|
B|----0---0-------4---4-----4------------------------------------------------|
G|--2-------2---4-------4h6--------------------------------------------------|
D|---------------------------------------------------------------------------|
A|---------------------------------------------------------------------------|
E|---------------------------------------------------------------------------|

Verse                    X3
e|---------------------------------------------------------------------------|
B|---------------------------------------------------------------------------|
G|------4------------4-----4-------------------------------------------------|
D|----2---2--------2-----2---------------------------------------------------|
A|--4-------4--2h4-----4-----------------------------------------------------|
E|---------------------------------------------------------------------------|


Pre-Chorus   Asus2  Bsus4  C#m
e|-------------0-------0---0-------------------------------------------------|
B|-------------0-------0---5-------------------------------------------------|
G|-------------2-------4---6-------------------------------------------------|
D|-------------2-------4---6-------------------------------------------------|
A|-------------0-------2---4-------------------------------------------------|
E|-------------x-------x---x-------------------------------------------------|

e|-------------0-------0---0----------0---0----------------------------------|
B|-------------0-------0---5----------0---0----------------------------------|
G|-------------2-------4---6----------2---1----------------------------------|
D|-------------2-------4---6----------2---2----------------------------------|
A|-------------0-------2---4----------0---0----------------------------------|
E|-------------x-------x---x----------x---x----------------------------------|


 Chorus    "I can..."    "Suddenly..     "I can.."    "the world.."
e|-----------0--------------0-------------0------------0----------------0----|
B|-----------0--------------0-------------5------------0----------------5----|
G|-----------1--------------2-------------6------------2----------------6----|
D|-----------2--------------2-------------6------------2----------------6----|
A|-----------2--------------0-------------4------------0----------------4----|
E|-----------0--------------x-------------x------------x----------------x----|

Verse x1
Pre-Chorus x1
Chorus x2

Solo  This is from that other guy's tab because it's right so thanks to him.

e -----------------------------------|
B -----------------------------------|
G -9-8-6-----------------------------|
D -------9-7-6-------6-6/7-7-6---7/9-|
A -------------9-7-------------------|
E -----------------------------------|


e ---------------------------------------------------------------------------------|
B -5---7---9---10---12------5---7---9-9h10-9-9-7-5------12---9b10-7-5-5---4/5-12---|
G ---------------------------------------------------------------------------------|
D ---------------------------------------------------------------------------------|
A ---------------------------------------------------------------------------------|
E ---------------------------------------------------------------------------------|


e -12-11-------------12-11-----------------------------|
B -------12---4-5-12-------12/14-12---4/5-7-9-10-9-7/9-|
G -----------------------------------------------------|
D -----------------------------------------------------|
A -----------------------------------------------------|
E -----------------------------------------------------|

Chorus x3


Thanks to those other guys who wrote the solo and the chords they helped a lot so go 
their tabs a good rating. The strumming on the Pre-Chorus and the Chorus is pretty easy to 
so just listen to the song. I hope you enjoy this is a great song.

God Bless
            
Submit corrections



        Breathe lessons Hard to play? Try these video lessons and learn fast Breathe lessons
        
↑ Back to top | Tablatures and chords for acoustic guitar and electric guitar, ukulele, drums are parodies/interpretations of the original songs. You may use it for private study, scholarship, research or language learning purposes only