» » »

Amen - The Waiting Tabs

Artists:  A B C D E F G H I J K L M N O P Q R S T U V W X Y Z # 

The Waiting Tabs

(ver. 1) Click to play this song!
Amen
 Rating:
4/5 (4 votes)

 The Waiting lessons Tabs too difficult? Try these video lessons and learn fast
 
                Waiting 18
drop d tuning

D A D G B E

intro and verse(just add a palm mute for verse)
d|-1-2-3-4-4-4-4-4-4-4-4-4-4-4-4-4--|
a|----------------------------------|
d|----------------------------------|
g|----------------------------------|
b|----------------------------------|
e|----------------------------------|

pre chorus
d|--------------------------------------------|
a|-7-7-9-7--7-7-9-7-x2--9-9-11-9--9-9-11-9-x2-|
d|-7-7-9-7--7-7-9-7-----9-9-11-9--9-9-11-9----|
g|--------------------------------------------|
b|--------------------------------------------|
e|--------------------------------------------|

chorus
d|-4-4-4-4-4--7-7-7-7-7--2-2-2-2-2--9-9-9-9-9-|
a|-4-4-4-4-4--7-7-7-7-7--2-2-2-2-2--9-9-9-9-9-|
d|-4-4-4-4-4--7-7-7-7-7--2-2-2-2-2--9-9-9-9-9-|
g|--------------------------------------------|
b|--------------------------------------------|
e|--------------------------------------------|


Easy!
            
Submit corrections


        The Waiting lessons Hard to play? Try these video lessons and learn fast The Waiting lessons
        
↑ Back to top | Tablatures and chords for acoustic guitar and electric guitar, ukulele, drums are parodies/interpretations of the original songs. You may use it for private study, scholarship, research or language learning purposes only