» » »

Amen - Take My Head Tabs

Artists:  A B C D E F G H I J K L M N O P Q R S T U V W X Y Z # 

Take My Head Tabs

(ver. 1) Click to play this song!
Amen
 Rating:
4/5 (4 votes)

 Take My Head lessons Tabs too difficult? Try these video lessons and learn fast
 
                TUNING: Drop D ( D A D G B E )


INTRO 0:00/0:13

|---------------------------------------------
|---------------------------------------------
|---------------------------------------------
|--6--5--3--3--5--5--5--0----0-0---0-0-0-0-0--
|--6--5--3--3--5--5--5--0----0-0---0-0-0-0-0--
|--6--5--3--3--5--5--5--0----0-0---0-0-0-0-0--

|---------------------------------------------
|---------------------------------------------
|---------------------------------------------
|--6--5--3--3--5--5--5--1----1-1---1-1-1-1-1--
|--6--5--3--3--5--5--5--1----1-1---1-1-1-1-1--
|--6--5--3--3--5--5--5--1----1-1---1-1-1-1-1--

|---------------------------------------------
|---------------------------------------------
|---------------------------------------------
|--6--5--3--3--5--5--5--0----0-0---0-0-0-0-0--
|--6--5--3--3--5--5--5--0----0-0---0-0-0-0-0--
|--6--5--3--3--5--5--5--0----0-0---0-0-0-0-0--

|---------------------------------------------
|---------------------------------------------
|---------------------------------------------
|--6--5--3--3--5--5--5--1----1-1---1-1-1-1-1--
|--6--5--3--3--5--5--5--1----1-1---1-1-1-1-1--
|--6--5--3--3--5--5--5--1----1-1---1-1-1-1-1--


VERSE 0:13/0:28

|----------------------------------------------------------------------
|----------------------------------------------------------------------
|----------------------------------------------------------------------
|-------------------------------------------------------------8-8-8-8--
|-------------------0-0-0-0-0-0-3-6--0-0-0-0-0-0-3-6----------x-x-x-x--
|--0-0-0-0-0-0-3-6--0-0-0-0-0-0-3-6--0-0-0-0-0-0-3-6--0-0-0-0-6-6-6-6--

|---------------------------------------------------------------------
|---------------------------------------------------------------------
|---------------------------------------------------------------------
|---------------------------------------------------------------------
|-------------------0-0-0-0-0-0-3-6--0-0-0-0-0-0-3-6------------------
|--0-0-0-0-0-0-3-6--0-0-0-0-0-0-3-6--0-0-0-0-0-0-3-6--0-0-0-0-12-/-0--


PRE CHORUS 0:28/0:48

|----------------------------------------
|----------------------------------------
|----------------------------------------
|--7----5----8----7----7----5----8---10--
|--x----x----x----x----x----x----x----x--
|--5----3----6----5----5----3----6----8--

|-------------------
|-------------------
|-------------------
|-------------------
|-------------------
|--0-3-5-0-6-6-5-6-- x4


CHORUS 0:48/1:01

|-------------------
|-------------------
|-------------------
|--0-3-5-0-6-6-5-6--
|--0-3-5-0-6-6-5-6--
|--0-3-5-0-6-6-5-6-- x4

|--------------------
|--------------------
|--------------------
|--------------------
|--------------------
|--2----3----0----1--


VERSE 1:01/1:17

|-------------------
|-------------------
|-------------------
|-------------------
|--0-0-0-0-0-0-3-6--
|--0-0-0-0-0-0-3-6-- x5

|-------------------
|-------------------
|-------------------
|----------8-8-8-8--
|----------x-x-x-x--
|--0-0-0-0-6-6-6-6--

|----------------------------------------------------------------------
|----------------------------------------------------------------------
|----------------------------------------------------------------------
|-------------------------------------------------------------8-8-8-8--
|--0-0-0-0-0-0-3-6--0-0-0-0-0-0-3-6--0-0-0-0-0-0-3-6----------x-x-x-x--
|--0-0-0-0-0-0-3-6--0-0-0-0-0-0-3-6--0-0-0-0-0-0-3-6--0-0-0-0-6-6-6-6-- 


PRE-CHORUS 1:17/1:37

|----------------------------------------
|----------------------------------------
|----------------------------------------
|--7----5----8----7----7----5----8---10--
|--x----x----x----x----x----x----x----x--
|--5----3----6----5----5----3----6----8--

|-------------------
|-------------------
|-------------------
|-------------------
|-------------------
|--0-3-5-0-6-6-5-6-- x4


CHORUS 1:37/1:58

|-------------------
|-------------------
|-------------------
|--0-3-5-0-6-6-5-6--
|--0-3-5-0-6-6-5-6--
|--0-3-5-0-6-6-5-6-- x4

|--------------------------------------
|--------------------------------------
|--------------------------------------
|--------------------------------------
|--------------------------------------
|--2-2-2-2--3-3-3-3--0-0-0-0--1---x-x-- x4


BREAK 1:58/2:11

|-----------------------------------------------------------------------
|-----------------------------------------------------------------------
|----------8-8-8-8---------9-9-9-9---------8-8-8-8---------12-12-12-12--
|----------x-x-x-x---------x-x-x-x---------x-x-x-x----------x--x--x--x--
|----------6-6-6-6---------7-7-7-7---------6-6-6-6---------10-10-10-10--
|--0-3-6-0---------0-3-6-0---------0-3-6-0---------0-3-6-0--------------

|---------------------------------------------------------------------
|---------------------------------------------------------------------
|----------8-8-8-8---------9-9-9-9--------10-10-10-10-----------------
|----------x-x-x-x---------x-x-x-x---------x--x--x--x-----------------
|----------6-6-6-6---------7-7-7-7---------8--8--8--8-----------------
|--0-3-6-0---------0-3-6-0---------0-3-6-0------------0-3-6-0-10-/-0--


OUTRO 2:11/2:37

|--------------------------------------
|--------------------------------------
|--------------------------------------
|--------------------------------------
|--------------------------------------
|--2-2-2-2--3-3-3-3--0-0-0-0--1---x-x-- x4

|--------------------------------------
|--------------------------------------
|--------------------------------------
|--------------------------------------
|--------------------------------------
|--0-3-6-0-3-6--0-6--0-3-6-0-3-6--0-6-- x4

|--------------------------------------
|--------------------------------------
|--------------------------------------
|--------------------------------------
|--0-3-6-0-3-6--0-6--0-3-6-0-3-6--0-6--
|--0-3-6-0-3-6--0-6--0-3-6-0-3-6--0-6-- x4




h  = Hammer On
p  = Pull Off
/  = Slide
() = Natural Harmonic
.  = Palm Mute
x  = String Mute
            
Submit corrections


        Take My Head lessons Hard to play? Try these video lessons and learn fast Take My Head lessons
        
↑ Back to top | Tablatures and chords for acoustic guitar and electric guitar, ukulele, drums are parodies/interpretations of the original songs. You may use it for private study, scholarship, research or language learning purposes only