» » »

Amen - Everything Is Untrue Tabs

Artists:  A B C D E F G H I J K L M N O P Q R S T U V W X Y Z # 

Everything Is Untrue Tabs

(ver. 2) Click to play this song!
Amen
 Rating:
4/5 (4 votes)

 Everything Is Untrue lessons Tabs too difficult? Try these video lessons and learn fast
 
                
GUITARISTS: Paul Fig & Sonny Mayo / Rich Jones & Matt Montgomery
TUNING: Drop D ( D A D G B E )


MAIN RIFF 0:19/0:28

|------------------------------
|------------------------------
|--9-9-9-9--9-9-9-9--9-9-9-9^--
|--x-x-x-x--x-x-x-x--x-x-x-x---
|--7-7-7-7--7-7-7-7--7-7-7-7^--
|------------------------------


VERSE A 0:28/0:37

|-------------------
|-------------------
|-------------------
|-------------------
|-------------------
|--2--0--2--0--2-3--

VERSE B 0:37/0:46

|-----------------------------------
|-----------------------------------
|-----------------------------------
|--2-/-3-/-2--0--2-/-3-/-2--0--2-3--
|--2-/-3-/-2--0--2-/-3-/-2--0--2-3--
|--2-/-3-/-2--0--2-/-3-/-2--0--2-3--


BREAK 0:46/1:04

|-----------
|-----------
|-----------
|-----------
|--10~--9~--
|-----------

|-----------
|-----------
|-----------
|-----------
|--5--2--0--
|--5--2--0--


MAIN RIFF 1:04/1:13

|------------------------------
|------------------------------
|--9-9-9-9--9-9-9-9--9-9-9-9^--
|--x-x-x-x--x-x-x-x--x-x-x-x---
|--7-7-7-7--7-7-7-7--7-7-7-7^--
|------------------------------ x3

|----------------------------------------------
|----------------------------------------------
|--9-9-9-9--9-9-9-9---9--9-10-10--12-12-14-14--
|--x-x-x-x--x-x-x-x---x--x--x--x---x--x--x--x--
|--7-7-7-7--7-7-7-7---7--7--8--8--10-10-12-12--
|----------------------------------------------


VERSE A 1:13/1:22

|-------------------
|-------------------
|-------------------
|-------------------
|-------------------
|--2--0--2--0--2-3--


VERSE B 1:22/1:31

|-----------------------------------
|-----------------------------------
|-----------------------------------
|--2-/-3-/-2--0--2-/-3-/-2--0--2-3--
|--2-/-3-/-2--0--2-/-3-/-2--0--2-3--
|--2-/-3-/-2--0--2-/-3-/-2--0--2-3--


BREAK 1:31/1:49

|-----------
|-----------
|-----------
|-----------
|--10~--9~--
|----------- x3

|-----------
|-----------
|-----------
|-----------
|--5--2--0--
|--5--2--0--


MAIN RIFF 1:49/1:53

|------------------------------
|------------------------------
|--9-9-9-9--9-9-9-9--9-9-9-9^--
|--x-x-x-x--x-x-x-x--x-x-x-x---
|--7-7-7-7--7-7-7-7--7-7-7-7^--
|------------------------------ x2


CHORUS 1:53/2:28

|----------------------------------------------------------------------
|----------------------------------------------------------------------
|----------------------------------------------------------------------
|--2-2-2-2-2-2-2-2--3-3-3-3-3-3-3-3--5-5-5-5-5-5-5-5--0-0-0-0-0-0-0-0--
|--2-2-2-2-2-2-2-2--3-3-3-3-3-3-3-3--5-5-5-5-5-5-5-5--0-0-0-0-0-0-0-0--
|--2-2-2-2-2-2-2-2--3-3-3-3-3-3-3-3--5-5-5-5-5-5-5-5--0-0-0-0-0-0-0-0--


|----------------------------------------------------------------------
|----------------------------------------------------------------------
|----------------------------------------------------------------------
|--2-2-2-2-2-2-2-2--3-3-3-3-3-3-3-3--5-5-5-5-5-5-5-5--5-5-5-5-5-5-5-5--
|--2-2-2-2-2-2-2-2--3-3-3-3-3-3-3-3--5-5-5-5-5-5-5-5--5-5-5-5-5-5-5-5--
|--2-2-2-2-2-2-2-2--3-3-3-3-3-3-3-3--5-5-5-5-5-5-5-5--5-5-5-5-5-5-5-5--

|----------------------------------------------------------------------
|----------------------------------------------------------------------
|----------------------------------------------------------------------
|--2-2-2-2-2-2-2-2--3-3-3-3-3-3-3-3--5-5-5-5-5-5-5-5--0-0-0-0-0-0-0-0--
|--2-2-2-2-2-2-2-2--3-3-3-3-3-3-3-3--5-5-5-5-5-5-5-5--0-0-0-0-0-0-0-0--
|--2-2-2-2-2-2-2-2--3-3-3-3-3-3-3-3--5-5-5-5-5-5-5-5--0-0-0-0-0-0-0-0--

|------------------------------------------------------------------
|------------------------------------------------------------------
|------------------------------------------------------------------
|--2-2-2-2-2-2-2-2--3-3-3-3-3-3-3-3--5-5-5-5-5-5-5-5----0-12-10-8--
|--2-2-2-2-2-2-2-2--3-3-3-3-3-3-3-3--5-5-5-5-5-5-5-5----0-12-10-8--
|--2-2-2-2-2-2-2-2--3-3-3-3-3-3-3-3--5-5-5-5-5-5-5-5----0-12-10-8--

|----------------------------------------------------------------------
|----------------------------------------------------------------------
|--4-4-4-4-4-4-4-4--5-5-5-5-5-5-5-5--7-7-7-7-7-7-7-7--2-2-2-2-2-2-2-2--
|--2-2-2-2-2-2-2-2--3-3-3-3-3-3-3-3--5-5-5-5-5-5-5-5--0-0-0-0-0-0-0-0--
|--2-2-2-2-2-2-2-2--3-3-3-3-3-3-3-3--5-5-5-5-5-5-5-5--0-0-0-0-0-0-0-0--
|--2-2-2-2-2-2-2-2--3-3-3-3-3-3-3-3--5-5-5-5-5-5-5-5--0-0-0-0-0-0-0-0--

|----------------------------------------------------------------------
|----------------------------------------------------------------------
|--4-4-4-4-4-4-4-4--5-5-5-5-5-5-5-5--7-7-7-7-7-7-7-7--7-7-7-7-7-7-7-7--
|--2-2-2-2-2-2-2-2--3-3-3-3-3-3-3-3--5-5-5-5-5-5-5-5--5-5-5-5-5-5-5-5--
|--2-2-2-2-2-2-2-2--3-3-3-3-3-3-3-3--5-5-5-5-5-5-5-5--5-5-5-5-5-5-5-5--
|--2-2-2-2-2-2-2-2--3-3-3-3-3-3-3-3--5-5-5-5-5-5-5-5--5-5-5-5-5-5-5-5--

|----------------------------------------------------------------------
|----------------------------------------------------------------------
|--4-4-4-4-4-4-4-4--5-5-5-5-5-5-5-5--7-7-7-7-7-7-7-7--2-2-2-2-2-2-2-2--
|--2-2-2-2-2-2-2-2--3-3-3-3-3-3-3-3--5-5-5-5-5-5-5-5--0-0-0-0-0-0-0-0--
|--2-2-2-2-2-2-2-2--3-3-3-3-3-3-3-3--5-5-5-5-5-5-5-5--0-0-0-0-0-0-0-0--
|--2-2-2-2-2-2-2-2--3-3-3-3-3-3-3-3--5-5-5-5-5-5-5-5--0-0-0-0-0-0-0-0--


|------------------------------------------------------------------
|------------------------------------------------------------------
|--4-4-4-4-4-4-4-4--5-5-5-5-5-5-5-5--7-7-7-7-7-7-7-7---------------
|--2-2-2-2-2-2-2-2--3-3-3-3-3-3-3-3--5-5-5-5-5-5-5-5----0-12-10-8--
|--2-2-2-2-2-2-2-2--3-3-3-3-3-3-3-3--5-5-5-5-5-5-5-5----0-12-10-8--
|--2-2-2-2-2-2-2-2--3-3-3-3-3-3-3-3--5-5-5-5-5-5-5-5----0-12-10-8--


BREAK 2:28/2:45

|-----------------------------
|-----------------------------
|-----------------------------
|-----------------------------
|--2h3p2p0--3h5p3p2--5h6p5p3--
|--2h3p2p0--3h5p3p2--5h6p5p3--

|---------------------------
|---------------------------
|---------------------------
|---------------------------
|--2-3-2-0-3-5-3-2-5-6-5-3--
|--2-3-2-0-3-5-3-2-5-6-5-3--


MIDDLE EIGHT 2:45/3:48

|------------------------------------------------------------------------
|------------------------------------------------------------------------
|------------------------------------------------------------------------
|------------------------------------------------------------------------
|------------------------------------------------------------------------
|--2-2-2-2-2-2-2-2--3-3-3-3-3-3-3-3-3--5-5-5-5-5-5-5-5--0-0-0-0-0-0-0-0-- x4
   . . . . . . . .  . . . . . . . . .  . . . . . . . .  . . . . . . . .

|----------------------------------------------------------------------
|----------------------------------------------------------------------
|----------------------------------------------------------------------
|--2-2-2-2-2-2-2-2--3-3-3-3-3-3-3-3--5-5-5-5-5-5-5-5--0-0-0-0-0-0-0-0--
|--2-2-2-2-2-2-2-2--3-3-3-3-3-3-3-3--5-5-5-5-5-5-5-5--0-0-0-0-0-0-0-0--
|--2-2-2-2-2-2-2-2--3-3-3-3-3-3-3-3--5-5-5-5-5-5-5-5--0-0-0-0-0-0-0-0-- x3

|------------------------------------------------
|------------------------------------------------
|------------------------------------------------
|--2-2-2-2-2-2-2-2--3-3-3-3-3-3-3-3--5-5-5-5-5^--
|--2-2-2-2-2-2-2-2--3-3-3-3-3-3-3-3--5-5-5-5-5^--
|--2-2-2-2-2-2-2-2--3-3-3-3-3-3-3-3--5-5-5-5-5^--

|----------------------------------------------------------------------
|----------------------------------------------------------------------
|----------------------------------------------------------------------
|--2-2-2-2-2-2------3-3-3-3-3-3------5-5-5-5-5-5------0-0-0-0-0-0------
|--2-2-2-2-2-2------3-3-3-3-3-3------5-5-5-5-5-5------0-0-0-0-0-0------
|--2-2-2-2-2-2------3-3-3-3-3-3------5-5-5-5-5-5------0-0-0-0-0-0------ x5

|-----------------------------------------------------------------------------------
|-----------------------------------------------------------------------------------
|-----------------------------------------------------------------------------------
|-----------------------------------------------------------------------------------
|-----------------------------------------------------------------------------------
|--0-3-5-0-3-5--0-3-5-0-3-5--0-3-5-0-3-5--0-3-5-0-3-5---0x-0x-0x-0x-0x-0x-0x-0x-0x--


OUTRO 3:53/4:19

|-------------------------
|-------------------------
|-------------------------
|--0-2---2-3---3-5---5-0--
|--0-2---2-3---3-5---5-0--
|--0-2---2-3---3-5---5-0--
            
Submit corrections


        Everything Is Untrue lessons Hard to play? Try these video lessons and learn fast Everything Is Untrue lessons
        
↑ Back to top | Tablatures and chords for acoustic guitar and electric guitar, ukulele, drums are parodies/interpretations of the original songs. You may use it for private study, scholarship, research or language learning purposes only