» » »

Amen - Drive Tabs

Artists:  A B C D E F G H I J K L M N O P Q R S T U V W X Y Z # 

Drive Tabs

(ver. 2) Click to play this song!
Amen
 Rating:
4/5 (4 votes)

 Drive lessons Tabs too difficult? Try these video lessons and learn fast
 
                Drive (guitar 1)

Intro/main riff/chorus (used through most of song)

E----------------------------------------
B----------------------------------------
G----------------------------------------
D----------------------------------------
A----------------------------------------
E--12/7-00-0-12/7-0-12/7-0---------------


Riff 2 (38 seconds)

E----------------------------------------
B----------------------------------------
G---------------------------------5b*----
D----------------------------------------
A--2-2---2-4-4--4-5-5--5-8--7--5---------
E--0-0---0-2-2--2-3-3--3-6--5--3---------  * only last time

Riff 3 (1.30)

E-------------------------------------
B-------------------------------------
G-------------------------------------
D----2---2---2------------------------ let all notes ring
A-------------------------------------
E--0---2---3----6--5--3---------------

Riff 4 (1.38)

E-----------------------------------
B-----------------------------------
G-----------------------------------
D-----------------------------------
A--7---9---10---12------------------
E--5---7---8----10b-----------------

Riff 5 (1.49)

E-------------------------------
B-------------------------------
G-------------------------------
D----------------------0--------
A---7--5-5---8-7-5-----0-------- the two zeros are after 8 times (i think) and let them ring
E---5--3-3---6-5-3--------------

Interlude

E------------------------------------
B------------------------------------
G-----------------------------------
D--16-(let ring)----------------------
A-------------------------------------
E-------------------------------------

Riff 6 (2.27)

E----------------------------------
B----------------------------------
G----0---0----0--------------------
D----------------------------------
A----------------------------------
E--0---2---3-----6-5-3-------------


Guitar 2 different parts below (everything else is the same)

NOTE: guitar 2 plays full power chords all the way through (with octave)

this is after main riff has been played 4 times

E------------------------------------
B------------------------------------
G------------------------------------
D--12-12-12-12-12-12-12-12-----------
A------------------------------------
E--10-10-10-10-10-10-10-10-----------

E------------------------------------
B------------------------------------
G------------------------------------
D---7-7-7-7-7-7-7-7------------------ this is at 0.37 just before riff 2
A------------------------------------
E---5-5-5-5-5-5-5-5------------------

E----------------------------------
B----------------------------------
G----------------------------------
D----0---0---0---------------------
A---------------------------------- guitar 2's version of riff 3
E--0---2---3----6-5-3--------------

Interlude

E-----------14------14------14------
B---------------------------13------ this last chord is repeated numerous times
G--------11-----11------11----------
D---0-------------------------------
A---0-------------------------------
E---0-------------------------------
            
Submit corrections


        Drive lessons Hard to play? Try these video lessons and learn fast Drive lessons
        
↑ Back to top | Tablatures and chords for acoustic guitar and electric guitar, ukulele, drums are parodies/interpretations of the original songs. You may use it for private study, scholarship, research or language learning purposes only