» » »

Amen - Coma America Tabs

Artists:  A B C D E F G H I J K L M N O P Q R S T U V W X Y Z # 

Coma America Tabs

(ver. 2) Click to play this song!
Amen
 Rating:
4/5 (4 votes)

 Coma America lessons Tabs too difficult? Try these video lessons and learn fast
 
                drop d as always

intro
 b)----------------------------------------------------------I
 g)--8--7----8--7----8--7----8--7----8--7----8--7----8--7----I
 D)--8--7----8--7----8--7----8--7----8--7----8--7----8--7----I
 A)--6--5----6--5----6--5----6--5----6--5----6--5----6--5----I
 D)----------------------------------------------------------I
 
 
 when casy comes in with "Cut off" 
 g)---------8---------7---------8---------7-----------8---------7---I
 D)---------8---------7---------8---------7-----------8---------7---I
 A)---------6---------5---------6---------5-----------6---------5---I
 D)---0--0------0--0------0--0------0--0--------0--0------0--0------I

 g)--------10---------12----I
 D)--------10---------12----I
 A)---------8---------10----I
 D)---0--0------0--0--------I


 

  Verse

 
 
   P.M _ _ _ _ _ _ _  _ _ _ _ _ _ _ _ _ _ _ _ _ _ _ _ _ _ _ _ _ _ _ _ _ _ 	        
 g)-------------------------------------------------------------------------I 
 D)---0--0--1---0--0--1---0--0--1---0--0--1---0--0--1---0--0--1---0--0--1---I 
 A)---0--0--1---0--0--1---0--0--1---0--0--1---0--0--1---0--0--1---0--0--1---I  
 D)---0--0--1---0--0--1---0--0--1---0--0--1---0--0--1---0--0--1---0--0--1---I

 End palm mute for this 
 g)------------------I
 D)---0--5--8--8-----I
 A)---0--5--8--8-----I
 D)---0--5--8--8-----I




 chorus
 g)--------------------------------------------------I
 D)---6-5-3-0--6-5-3-0--6-5-3-0---6-6-6-6------------I
 A)---6-5-3-0--6-5-3-0--6-5-3-0---6-6-6-6------------I
 D)---6-5-3-0--6-5-3-0--6-5-3-0---6-6-6-6------------I

 g)--------------------------------------------------I
 D)---6-5-3-0--6-5-3-0--6-5-3-0---6-6-6-6------------I
 A)---6-5-3-0--6-5-3-0--6-5-3-0---6-6-6-6------------I
 D)---6-5-3-0--6-5-3-0--6-5-3-0---6-6-6-6------------I

 g)--------------------------------------------------I
 D)---6-5-3-0--6-5-3-0--6-5-3-0---6-6-6-6------------I
 A)---6-5-3-0--6-5-3-0--6-5-3-0---6-6-6-6------------I
 D)---6-5-3-0--6-5-3-0--6-5-3-0---6-6-6-6------------I

 g)--------------------------------------------------I
 D)---6-5-3-0--6-5-3-0--6-5-3-0---6-5-6-8------------I
 A)---6-5-3-0--6-5-3-0--6-5-3-0---6-5-6-8------------I
 D)---6-5-3-0--6-5-3-0--6-5-3-0---6-5-6-8------------I
 
 and thats it my friends!

 easy! listen to the song for timing!
            
Submit corrections


        Coma America lessons Hard to play? Try these video lessons and learn fast Coma America lessons
        
↑ Back to top | Tablatures and chords for acoustic guitar and electric guitar, ukulele, drums are parodies/interpretations of the original songs. You may use it for private study, scholarship, research or language learning purposes only