Home » A » Ambassadors »

Ambassadors - Smile Tabs

Artists:  A B C D E F G H I J K L M N O P Q R S T U V W X Y Z # 

Smile Tabs

(ver. 1) Click to play this song!
Ambassadors
---------------------------------------------------------------------------
                             SMILE - the ambassadors
----------------------------------------------------------------------------

Tuning:drop d

      I worked so hard for this tab para lang makumpleto ko.. 90% accurate to! kayo na 
mag-rate ha?

intro
e|------------------------------------------------------------------------|
B|------------------------------------------------------------------------|
G|--99999999--13-13-13--14-14-14---77777777--13-13-13--14-14-14-----------|
D|--xxxxxxxx---x--x--x---x--x--x---xxxxxxxx---x--x--x---x--x--x-----------|
A|--77777777--11-11-11--12-12-12---55555555--11-11-11--12-12-12-----------|
D|------------------------------------------------------------------------|

e|--------------------------------------------------------|
B|--------------------------------------------------------|
G|--99999999--777--666------------------------------------|
D|--xxxxxxxx--xxx--xxx--7-77-9/11-9-7---------------------|
A|--77777777--555--444------------------------------------|
D|--------------------------------------------------------|

verse "do i have 2 say a bouncing word"
e|----------------------------------------------------------------|
B|----------------------------------------------------------------|
G|----------------------------------------------------------------|
D|--777-7-----------777-7-let ring--(2x)--------------------------|
A|--777-7-let ring--555-5-----------------------------------------|
D|--777-7---------------------------------------------------------|
    ...             ...

     "do i have 2 walk w/u down the aisle"
e|------------------------------------------------------------------------|
B|------------------------------------------------------------------------|
G|------------------------------------------------------------------------|
D|--44-4---22-2---77-7---77-99-77-99--------------------------------------|
A|--44-4---22-2---55-5---55-77-55-77--------------------------------------|
D|--44-4---22-2-----------------------------------------------------------|
    ..     ..     ..

   "just 2 prove that Iam worthing ur smile"
e|------------------------------------------------------|
B|------------------------------------------------------|
G|------------------------------------------------------|
D|--4xxx---2xxx---77777---------------------------------|
A|--4xxx---2xxx---55555---------------------------------|
D|--4xxx---2xxx-----------------------------------------|


verse 2 "do i have 2 be somebody..      or do i have to owe my...
e|-------------------------------------|-------------------------|
B|-------------------------------------|-------------------------|
G|-------------------------777-9/11-9--|-9/11-9-7-3-(pick slide)-|
D|--7-----------7----------------------|-------------------------|
A|--7-let ring--5-let ring-------------|-------------------------|
D|--7----------------------------------|-------------------------|

   "do i have 2 wait a minute or a while"
e|----------------------------------------------------------------------|
B|----------------------------------------------------------------------|
G|----------------------------------------------------------------------|
D|--444444444---22222222---77777777--(2x)-------------------------------|
A|--444444444---22222222---55555555-------------------------------------|
D|--444444444---22222222------------------------------------------------|

   "or will you let me wait the rest of my life"
e|---------------------------------------------------------|
B|---------------------------------------------------------|
G|---------------------------------------------------------|
D|--44444444--22222222--77777777-xxxx----------------------|
A|--44444444--22222222--55555555-xxxx----------------------|
D|--44444444--22222222-----------xxxx----------------------|

   " do i have 2 walk w/u down the aisle"
e|----------------------------------------------------------------|
B|----------------------------------------------------------------|
G|----------------------------------------------------------------|
D|--44xxx--22xxx--7777777-----------------------------------------|
A|--44xxx--22xxx--5555555-----------------------------------------|
D|--44xxx--22xxx--------------------------------------------------|

   "or do i have 2 walk away w/out your smile...smile."
e|--------------------------------------------------------------|
B|--------------------------------------------------------------|
G|--------------------------------------------------------------|
D|--4-----------2-----------7-777777-7--------------------------|
A|--4-let ring--2-let ring--5-555555-5--------------------------|
D|--4-----------2-----------------------------------------------|
                              ......

chorus:
         "a beautiful princess.."         "pincess of disguise.."
e|--------------------------------------|-----------------------------------|
B|--------------------------------------|-----------------------------------|
G|--------------------------------------|-----------------------------------|
D|--77777777---99999999--77-777-777-777-|-444444--222222--7777-77-77-7-77-7-|
A|--77777777---77777777--55-555-555-555-|-444444--222222--5555-55-55-5-55-5-|
D|--77777777----------------------------|-444444--222222--------------------|
                         du udu udu udu                   ...     ..   ..

part after chorus:
e|----------------|--------------|
B|----------------|-------0------|
G|--555-777-999-7-|----9---------|
D|----------------|---------(4x)-|
A|----------------|--0---0-------|
D|----------------|--------------|

 then.
e|-----------------------------------------------------------|
B|-----------------------------------------------------------|
G|-----------------------------------------------------------|
D|--777-777-777-77---777-777-777-77--(2x)--------------------|
A|--777-777-777-77---555-555-555-55--------------------------|
D|--777-777-777-77-------------------------------------------|
    dud dud dud ud   dud dud dud ud


e|-----------------------------------------------|
B|-----------------------------------------------|
G|-----------------------------------------------|
D|--44--7-5-3---22--7-5-----77-7--77-99-77-99----|
A|--44----------22----------55-5--55-77-55-77----|
D|--44----------22-------------------------------|
    ..          ..          ..

e|---------------------------------------------------|
B|---------------------------------------------------|
G|---------------------------------------------------|
D|--4-----------2-----------7-77-7-77-7-77-7-77-7----|
A|--4-let ring--2-let ring--5-55-5-55-5-55-5-55-5----|
D|--4-----------2------------------------------------|
                              ..   ..   ..   ..

  "....you down the aisle"   or do i have to...
e|----------------0--------|----------------|
B|--------------3---3------|--/6\4----------|
G|------------2------------|-------6-4-2-0--|
D|-----2----0--------------|----------------|
A|-----2-------------------|----------------|
D|-----2-------------------|----------------|


  last part:
e|------------------------------------------------------|
B|-------------55-----0---------------------------------|
G|----------------7-5---5-7-5---------------------------|
D|--77-7-77-7-----------------77-7-77-7--na-na-na--(x2)-|
A|--77-7-77-7-----------------55-5-55-5--na-na-na-------|
D|--77-7-77-7-------------------------------------------|
    ..   ..                    ..   ..

REPEAT CHORUS:

 then..
e|-----------------------------------------|
B|-----------------------------------------|
G|-----------------------------------------|
D|--777-777-77-777---777-777-77-777--------|
A|--777-777-77-777---555-555-55-555|-------|
D|--777-777-77-777-------------------------|
    dud dud ud dud   dud dud ud dud

B|------------------------------------------------|-----------|
G|------------------------------------------------|-----------|
D|--777-777-77-77---777-777-777-------------------|-7--end on-|
A|--777-777-77-77---555-555-555----5-4-2---5-4-2--|-7---------|
D|--777-777-77-77---------------------------------|-7---------|
                    ... ... ...    . . .   . . .

that's all.paki rate naman...

| .  palm muted
| /  slide up
| \  slide do
| u  up strum
| d  down strum
==========================================================================
            
Submit corrections

↑ Back to top | Tablatures and chords for acoustic guitar and electric guitar, ukulele, drums are parodies/interpretations of the original songs. You may use it for private study, scholarship, research or language learning purposes only