» » »

Alt-j - Portrait Tabs

Artists:  A B C D E F G H I J K L M N O P Q R S T U V W X Y Z # 

Portrait Tabs

(ver. 2) Click to play this song!
Alt-j
 Rating:
4.3/5 (26 votes)

 Portrait  lessons Tabs too difficult? Try these video lessons and learn fast
 
                [Intro]

  Acoustic, played 2x
e|-------------------------2-----2-|---------2-----2---------2-----2-|
B|-----3-----3---3-----3-----3-----|-----3-----3---------3-----3-----|
G|-4-4---4-4---4---4-4---4-----4---|-4-4---4-----4---4-4---4-----4---|
D|---------------------------------|---------------------------------|
A|---------------------------------|---------------------------------|
D|---------------------------------|---------------------------------|

e|---------0---------0-------------|---------------------------------|
B|---2-------2---------0---3-0-----|-----------------------3---------|
G|-----2-------2---------0-----0---|-----2---2---------2-----2---2---|
D|-------2-------------------------|-------4---4---------4-----4-----|
A|-0-------------------------------|-------------2---0---------------|
D|-----------------5---------------|-0---------------0---------------|



[Verse]

   Electric
   4 beats                           5 beats                                    
e|---------------------------------|-----------------------------------------|
B|---------------------------------|-----------------------------------------|
G|---------------------------------|-----------------------------------------|
D|---------------------------------|-----------------------------------------|
A|-2-2-2-2-2-2-2-2-2-2-2-2-2-2-2-2-|-5-5-5-5-5-5-5-5-5-5-5-5-5-5-5-5-5-5-5-5-|
D|---------------------------------|-----------------------------------------|

   4 beats again
e|---------------------------------|---------------------------------|
B|---------------------------------|---------------------------------|
G|---------------------------------|---------------------------------|
D|---------------------------------|---------------------------------|
A|-2-2-2-2-2-2-2-2-2-2-2-2-2-2-2-2-|-0-0-0-0-0-0-0-0-0-0-0-0-0-2-2-2-|
D|-2-2-2-2-2-2-2-2-2-2-2-2-2-2-2-2-|---------------------------------|

e|---------------------------------|---------------------------------|
B|---------------------------------|---------------------------------|
G|---------------------------------|---------------------------------|
D|---------------------------------|---------------------------------|
A|-2-2-2-2-2-2-2-2-2-2-2-2-2-2-2-2-|-5-5-5-5-5-5-5-5-5-5-5-5-5-5-5-5-|
D|---------------------------------|---------------------------------|

e|---------------------------------|---------------------------------|
B|---------------------------------|---------------------------------|
G|---------------------------------|---------------------------------|
D|---------------------------------|---------------------------------|
A|-2-2-2-2-2-2-2-2-2-2-2-2-2-2-2-2-|-0-0-0-0-0-0-0-0-0-0-0-0-0-2-2-2-|
D|-2-2-2-2-2-2-2-2-2-2-2-2-2-2-2-2-|---------------------------------|



[Chorus]

e|---------------------------------|-------------------------------|
B|---------------------------------|-------------------------------|
G|-0-0-0-0-0---0-0-0-0-0---0-0-0---|-------------------------------|
D|-0-0-0-0-0---0-0-0-0-0---0-0-0---|-4-4-4-4-4---4-4-4-4-4---4-4-4-|  play 2x
A|-2-2-2-2-2---2-2-2-2-2---2-2-2---|-5-5-5-5-5---5-5-5-5-5---5-5-5-|
D|---------------------------------|-------------------------------|


e|-4-4-4-4-4-4-4-4-4---------------|
B|-2-2-2-2-2-2-2-2-2---------------|
G|-2-2-2-2-2-2-2-2-2---------------|
D|-2-2-2-2-2-2-2-2-2---------------|
A|-0-0-0-0-0-0-0-0-0---------------|
D|---------------------------------|
                     "So paint me now"



[Bridge]

e|---------------------------------|---------------------------------|
B|---------------------------------|---------------------------------|
G|---------------------------------|---------------------------------|
D|---------------------------------|---------------------------------|
A|---------------------------------|-5-5-5-5-5-5-5-5-5-5-5-5-5-5-5-5-|
D|-9-9-9-9-9-9-9-9-9-9-9-9-9-9-9-9-|---------------------------------|

e|---------------------------------|---------------------------------|
B|---------------------------------|---------------------------------|
G|---------------------------------|---------------------------------|
D|---------------------------------|---------------------------------|
A|-7-7-7-7-7-7-7-7-7-7-7-7-7-7-7-7-|-7-7-7-7-7-7-7-7-7-7-7-7-9-9-9-9-|
D|---------------------------------|---------------------------------|

e|---------------------------------|---------------------------------|
B|---------------------------------|---------------------------------|
G|---------------------------------|---------------------------------|
D|---------------------------------|---------------------------------|
A|---------------------------------|-5-5-5-5-5-5-5-5-5-5-5-5-5-5-5-5-|
D|-9-9-9-9-9-9-9-9-9-9-9-9-9-9-9-9-|---------------------------------|

e|---------------------------------|---------------------------------|
B|---------------------------------|---------------------------------|
G|---------------------------------|---------------------------------|
D|---------------------------------|---------------------------------|
A|-7-7-7-7-7-7-7-7-7-7-7-7-7-7-7-7-|-7-7-7-7-7-7-7-7-7-7-7-7-9-9-9-9-|
D|---------------------------------|---------------------------------|

e|---------------------------------|
B|---------------------------------|
G|---------------------------------|
D|---------------------------------|
A|---------------------------------|
D|-5-5-5-5-5-5-5-5-7-7-7-7-7-7-7-7-|




[Last Verse]

e|---------------------------------|---------------------------------|
B|---------------------------------|---------------------------------|
G|---------------------------------|---------------------------------|
D|---------------------------------|---------------------------------| play 4x
A|-2-2-2-2-2-2-2-2-5-5-5-5-5-5-5-5-|-2-----0-2p0-2p0-2-----0-2p0-2p0-|
D|---------------------------------|-2-----0-2p0-2p0-2-----0-2p0-2p0-|
 * first 2x are without lyrics

e|---------------------------------|
B|---------------------------------|
G|---------------------------------|
D|---------------------------------|
A|-2-2-2-2-2-2-2-2-----------------|
D|-5-5-5-5-5-5-5-5-7-7-7-7-7-7-4---|




[Outro]

e|---------------------------------|
B|---------------------------------|
G|---------------------------------| play 8x
D|---------------------------------|
A|-5-5-5-5-5-5-5-5-5-5-5-5-5-5-5-5-|
D|-0-0-0-0-0-0-0-0-0-0-0-0-0-0-0-0-|


e|----------------------------------|-----------------------------------------|
B|----------------------------------|-----------------------------------------|
G|----------------------------------|-----------------------------------------|
D|----------------------------------|-----------------------------------------|
A|-2-2-2-2-2-2-2-2-/5-5-5-2-2-2-5-5-|-2---------------------------------------|
D|----------------------------------|-----------------------------------------|            
Submit corrections


        Portrait  lessons Hard to play? Try these video lessons and learn fast Portrait  lessons
        
↑ Back to top | Tablatures and chords for acoustic guitar and electric guitar, ukulele, drums are parodies/interpretations of the original songs. You may use it for private study, scholarship, research or language learning purposes only