» » »

Alt-j - Portrait Tabs

Artists:  A B C D E F G H I J K L M N O P Q R S T U V W X Y Z # 

Portrait Tabs

(ver. 1) Click to play this song!
Alt-j
 Rating:
4.3/5 (20 votes)

 Portrait  lessons Tabs too difficult? Try these video lessons and learn fast
 
                [Intro]
e|---------------------------------------------------------------------------|
B|---------------------------------------------------------------------------|
G|---------------------------------------------------------------------------|
D|----4--0------4--0-----4--0-----4--0---------------------------------------|
A|-2---------2--------2--------2---------------------------------------------|
E|---------------------------------------------------------------------------|

Chord Progression for [Verse]
e|---------------------------------------------------------------------------|
B|---------------------------------------------------------------------------|
G|-----------7-7-7-7---------------------------------------------------------|
D|--9-9-9-9--7-7-7-7--7-7-7-7------------------------------------------------|
A|--9-9-9-9--5-5-5-5--7-7-7-7------------------------------------------------|
E|--7-7-7-7-----------5-5-5-5------------------------------------------------|
strummed on counts 1 3 4 +

This is played next
e|-----------------|-------------------------|---------------------------------|
B|-----------------|-------------------------|---------------------------------|
G|-----------------|-------------------------|---------------------------------|
D|-7-7-7-7-7-7-7-7-|-11-11-11-11-11-11-11-11-|-9-9-9-9-9-9-9-9-9-9-9-9-9-9-9-9-|
A|-5-5-5-5-5-5-5-5-|-9--9--9--9--9--9--9--9--|-7-7-7-7-7-7-7-7-7-7-7-7-7-7-7-7-|
E|-----------------|-------------------------|---------------------------------|
            
Submit corrections


        Portrait  lessons Hard to play? Try these video lessons and learn fast Portrait  lessons
        
↑ Back to top | Tablatures and chords for acoustic guitar and electric guitar, ukulele, drums are parodies/interpretations of the original songs. You may use it for private study, scholarship, research or language learning purposes only