» » »

Alt-j - Bloodflood Tabs

Artists:  A B C D E F G H I J K L M N O P Q R S T U V W X Y Z # 

Bloodflood Tabs

(ver. 2) Click to play this song!
Alt-j
 Rating:
4.4/5 (8 votes)

 Bloodflood lessons Tabs too difficult? Try these video lessons and learn fast
 
                [Intro]
0:07 - 0:22
e|-------------------------|-------------------------|-------------------------|-------------------------|
B|-----0-----0-----0-----0-|-----0-----0-----0-----0-|-----0-----0-----0-----0-|-----0-----0-----0-----0-|
G|--2-----2-----2-----2----|--2-----2-----2-----2----|--2-----2-----2-----2----|--2-----2-----2-----2----|
D|-------------------------|-------------------------|-------------------------|-------------------------| x2
A|-------------------------|--0----------------------|-------------------------|-------------------------|
D|--4----------------------|--------------2----------|--0----------------------|-------------------------|

0:22 - 1:05
e|--0--0--0--0--0--0--0--0-|--0--0--0--0--0--0--0--0-|--0--0--0--0--0--0--0--0-|--0--0--0--0--0--0--0--0-|***
B|-----0-----0-----0-----0-|-----0-----0-----0-----0-|-----0-----0-----0-----0-|-----0-----0-----0-----0-|
G|--2-----2-----2-----2----|--2-----2-----2-----2----|--2-----2-----2-----2----|--2-----2-----2-----2----|
D|-------------------------|-------------------------|-------------------------|-------------------------|
A|-------------------------|--0----------------------|-------------------------|-------------------------|
D|--4----------------------|--------------2----------|--0----------------------|-------------------------|

  "Good morning, flood of blood..."                    "Good morning, everyone"
e|--0--0--0--0--0--0--0--0-|--0--0--0--0--0--0--0--0-|--0--0--0--0--0--0--0--0-|--0--0--0--0--0--0--0//5-|***
B|-----0-----0-----0-----0-|-----0-----0-----0-----0-|-----0-----0-----0-----0-|-----0-----0-----0-----0-|
G|--2-----2-----2-----2----|--2-----2-----2-----2----|--2-----2-----2-----2----|--2-----2-----2-----2----|
D|-------------------------|-------------------------|-------------------------|-------------------------|
A|-------------------------|--0----------------------|-------------------------|-------------------------| x2
D|--4----------------------|--------------2----------|--0----------------------|-------------------------|

***The notes on the e string are an estimate. They are on an odd rhythm, so just play what feels comfortable!

1:06- 1:20
"C---" (hold for 7 measures)
e|--9--9--9--9--9--9--9--9-|--9--9--9--9--9--9--9--9-|--9--9--9--9--9--9--9--9-|--9--9--9--9--9--9--9--9-|
B|--7--7--7--7--7--7--7--7-|--7--7--7--7--7--7--7--7-|--7--7--7--7--7--7--7--7-|--7--7--7--7--7--7--7--7-|
G|--6--6--6--6--6--6--6--6-|--6--6--6--6--6--6--6--6-|--6--6--6--6--6--6--6--6-|--6--6--6--6--6--6--6--6-|
D|-------------------------|-------------------------|-------------------------|-------------------------|
A|-------------------------|-------------------------|-------------------------|-------------------------|
D|-------------------------|-------------------------|-------------------------|-------------------------|

                                     "O-                Double"                              "M-O-N"
e|--9--9--9--9--9--9--9--9-|--9--9--9--9--9--9--9--9-|--9----------------------|-------------------------|
B}--7--7--7--7--7--7--7--7-|--7--7--7--7--7--7--7--7-|--7----------------------|-------------------------|
G|--6--6--6--6--6--6--6--6-|--6--6--6--6--6--6--6--6-|--6----------------------|-------------------------|
D|-------------------------|-------------------------|-------------------------|-------------------------|
A|-------------------------|-------------------------|-------------------------|-------------------------|
D|-------------------------|-------------------------|-------------------------|-------------------------|

1:21 - 1:34
e|----0--0h2---------------|----0--0h2---------------|----0--0h2---------------|----0--0h2---------------|
B|--2--------2p0-----0-0---|--2--------2p0-----0-0---|--2--------2p0-----0-0---|--2--------2p0-----0-0---|
G|----------------2--------|----------------2--------|----------------2--------|----------------2--------|
D|-------------------------|-----------------------4-|-------------------------|-------------------------|
A|-------------------------|-------------------------|-------------------------|-------------------------|
D|-------------------------|-------------------------|-------------------------|-------------------------|

1:35
"Mmm, a wave..."
            
Submit corrections


        Bloodflood lessons Hard to play? Try these video lessons and learn fast Bloodflood lessons
        
↑ Back to top | Tablatures and chords for acoustic guitar and electric guitar, ukulele, drums are parodies/interpretations of the original songs. You may use it for private study, scholarship, research or language learning purposes only