» » »

Alt-j - Bloodflood Tabs

Artists:  A B C D E F G H I J K L M N O P Q R S T U V W X Y Z # 

Bloodflood Tabs

(ver. 1) Click to play this song!
Alt-j
 Rating:
4.3/5 (20 votes)

 Bloodflood lessons Tabs too difficult? Try these video lessons and learn fast
 
                No [Intro]/[Verse] etc included.

[Outro]

Loop 1
e|------------|------------------|------------2---|-----------------------------------|
B|-2h3--------|--5h7----------10-|--2-------------|-----------------------------------|
G|------------|------------/11---|--------------2-|--4------2--1----------------------|
D|------------|------------------|----------------|-----------------------------------|
A|-2----------|--5---------------|--0-------------|-----------------------------------|
E|------------|------------------|----------------|--0--------------------------------|


Loop 2
e|-------------------|--------------------|-------------------|-----------------|
B|-11-14-16-11-14-16-|-11-13-14-11-13-14--|-11-14-16-11-14-16-|-9-11-14-9-11-14-|
G|-------------------|--------------------|-------------------|-----------------|
D|-------------------|--------------------|-------------------|-----------------|
A|-------------------|--------------------|-------------------|-----------------|
E|-------------------|--------------------|-------------------|-----------------|


Loop 3 - Some of those deeper voice parts at 4:28ish, just give it a listen for timing.
e|--------------------------|---------------------|----------------------------|
B|--------------------------|---------------------|----------------------------|
G|--------------------------|---------------------|----------------------------|
D|--------------------------|---------------------|----------------------------|
A|---------5--4--2-----4--2-|--/9--9--7--7--5--4--|-----2--0-------------------|
E|---5--5-----------5-------|---------------------|--0-------4--0-/5-----------|


Loop 4
Add in some chords for depth, one chord per bar, either let it ring out or give it some rhythm. Sometimes 
I make this into two loops, once with just the bass note being played more, then the second loop is each
chord strummed once and left to ring out. To each their own though, do you.


Bm   D   A   E

You can also do one loop open chords, another loop barre chords to make it sound more full.


Loop 5 - Play this once at the beginning of each bar, totalling 4 times.
e|---------------------------------------------------------------------------|
B|---------------------------------------------------------------------------|
G|----19--18--16------18--16-------------------------------------------------|
D|----------------19---------------------------------------------------------|
A|---------------------------------------------------------------------------|
E|---------------------------------------------------------------------------|


Loop 6 - The End Violin - Sounds pretty awesome if you play this with a slide.
e|----------------------------|-----------------------------------------------|
B|--------10-----5-----12-----|---15----19----17----12------------------------|
G|----------------------------|-----------------------------------------------|
D|--4-------------------------|-----------------------------------------------|
A|----------------------------|-----------------------------------------------|
E|----------------------------|-----------------------------------------------|            
Submit corrections


        Bloodflood lessons Hard to play? Try these video lessons and learn fast Bloodflood lessons
        
↑ Back to top | Tablatures and chords for acoustic guitar and electric guitar, ukulele, drums are parodies/interpretations of the original songs. You may use it for private study, scholarship, research or language learning purposes only