Home » A » Aloe Blacc »

Aloe Blacc - I Need A Dollar Bass

Artists:  A B C D E F G H I J K L M N O P Q R S T U V W X Y Z # 

I Need A Dollar Bass

(ver. 3) Click to play this song!
Aloe Blacc



INTRO
G|---------------|
D|-----------6---|
A|---------------|
E|x4-----------x4|


MAIN RIFF
G|----------------------46-------------------------------|x3
D|--6--6--6--6----4--4-------------------------------45--|
A|--------------6-------------4--4--4--4-24--4--4--4-----|
E|-------------------------------------------------------|

G|----------------------46------------------------------------|x1
D|--6--6--6--6----4--4----------------------------------------|
A|--------------6-------------4--4--4--4-24--4--4--4----4-6---|
E|------------------------------------------------------------|


BRIDGE                                         
G|---------------------6-6----6-6----6----|x3    
D|--------X6--X6-----------------------9\-|    
A|-6--X6----------X4--X-----X------X------|   
E|----------------------------------------| 

G|--------------|x1
D|--------------|
A|-4--4--4--4-6-|
E|--------------|


INTERLUDE
G|------------------|x3
D|--------13-13-----|
A|------13----------|
E|--11-----------9--|

G|----6-8-|
D|--------|
A|--------|
E|--------|

REPEAT MAIN RIFF UNTIL END


| /  slide up
| \  slide down
| h  hammer-on 
| p  pull-off 
| ~  vibrato 
| +  harmonic 
| x  Mute note
| S  Slap
| P  Pop
            
Submit corrections

↑ Back to top | Tablatures and chords for acoustic guitar and electric guitar, ukulele, drums are parodies/interpretations of the original songs. You may use it for private study, scholarship, research or language learning purposes only