Home » A » Aloe Blacc »

Aloe Blacc - I Need A Dollar Bass

Artists:  A B C D E F G H I J K L M N O P Q R S T U V W X Y Z # 

I Need A Dollar Bass

(ver. 1) Click to play this song!
Aloe Blacc
INTRO

G|--------|----------|
D|--------|--4-------|
A|--------|----------|
E|--X4----|----X4----|

STROPHE/ CHORUS

G|---------------------6-46--|---------------------------|
D|--6--6--6--6----4--4-------|-----------------------45--|
A|--------------6------------|--4--4--4--4-24--4--4------|
E|---------------------------|---------------------------|

BRIDGE                                          BRIDGE END

G|----------------------6-6----6-6----6--4-|    G|----------------|
D|---------X6--X6--------------------------|    D|----------------|
A|--6--X6----------X4--X-----X------X------|    A|--4--4--4--4-6--|
E|-----------------------------------------|    E|----------------|

INTERLUDE

G|------------------|
D|--------13-13-----|
A|------13----------|
E|--11-----------9--|

To judge from the sound it seems it is played on a 5-String. I can't test it as I don't 
one. But if you do, try playing the interlude on the B-String with the tab +5 frets. -infi
            
Submit corrections

↑ Back to top | Tablatures and chords for acoustic guitar and electric guitar, ukulele, drums are parodies/interpretations of the original songs. You may use it for private study, scholarship, research or language learning purposes only