Home » A » Aloe Blacc »

Aloe Blacc - I Need A Dollar Bass

Artists:  A B C D E F G H I J K L M N O P Q R S T U V W X Y Z # 

I Need A Dollar Bass

(ver. 2) Click to play this song!
Aloe Blacc
Strophe / Chorus

     1...e...2...e...3...e...4...e... 1...e...2...e...3...e...4...e...
G || -------------------------x4-6---|------------4-6-------------4-5- ||
D ||.------------6-5-----4-----------|--------------------------------.||
A ||.--------------------------------|4---4---4-------4---4---4-------.||
E || 4---4---4-------2---------------|-------------------------------- ||


I don't know if I'm walking on solid ground

     1...e...2...e...3...e...4...e... 1...e...2...e...3...e...4...e...
G || --------------------------------|--------6-6-----6-6-----6------- ||
D ||.--------------------------------|--------------------------------.||
A ||.6-----4-6-----x---------------x-|4---4-------4-------4-------4---.||
E || ----------------4-----2-4-------|-------------------------------- ||

What in the world am I gonna do tomorrow...

     1...e...2...e...3...e...4...e...
G || --------6-6--------------------- ||
D ||.--------------------------------.||
A ||.6-----6-----4-------------------.||
E || -------------------------------- ||
            
Submit corrections

↑ Back to top | Tablatures and chords for acoustic guitar and electric guitar, ukulele, drums are parodies/interpretations of the original songs. You may use it for private study, scholarship, research or language learning purposes only