Home » A » All Time Low »

All Time Low - Nightmares Chords

Artists:  A B C D E F G H I J K L M N O P Q R S T U V W X Y Z # 

Nightmares Chords

(ver. 2) Click to play this song!
All Time Low

[Intro]
D|---------|---------|
A|---------|-------0-|
F|---------|---------|
C|-----4-0-|-----0---|
G|-2-------|-2-------|
D|---------|---------|

[Verse 1]
Guitar 1
D|---------------------------------|---------------------------------|
A|---------------------------------|---------------------------------|
F|---------------------------------|---------------------------------|
C|---0---0---0---0---0---0---0---0-|---0---0---0---------------------|
G|-2---2---2/5-5-------------------|---------------4---4---4---4---4-|
D|-----------------3---3---3---3---|-3---3-/-7---5---5---5---5---5---|

Guitar 1
D|---------------------------------|---------------------------------|
A|---------------------------------|---------------------------------|
F|---------------------------------|---------------------------------|
C|---0---0---0---0---0---0---0---0-|---0---0---0-------0-----0-------|
G|-2---2---2/5-5-------------------|---------------4-----4-----4---4-|
D|-----------------3---3---3---3---|-3---3-/-7---5---5-----5-----5---|

Guitar 1
D|---------------------------------|---------------------------------|
A|---------------------------------|---------------------------------|
F|---------------------------------|---------------------------------|
C|---0---0---0---0---0---0---0---0-|---0---0---0---------------------|
G|-2---2---2/5-5-------------------|---------------4---4---4---4---4-|
D|-----------------3---3---3---3---|-3---3-/-7---5---5---5---5---5---|

Guitar 2
   Bm      D       G                 G       Bm      A    
D|-2-------2-------3---------------|-3-------2-------5---------------|
A|-3-------3-------3---------------|-3-------3-------5---------------|
F|-4-------2-------4---------------|-4-------4-------6---------------|
C|-4-------4-------5---------------|-5-------4-------7---------------|
G|-2-------5-------5---------------|-5-------2-------7---------------|
D|---------2-------3---------------|-3---------------5---------------|

Guitar 1
D|---------------------------------|---------------------------------|
A|---------------------------------|---------------------------------|
F|---------------------------------|---------------------------------|
C|---0---0---0---0---0---0---0---0-|---0---0---0-------0-----0-------|
G|-2---2---2/5-5-------------------|---------------4-----4-----4---4-|
D|-----------------3---3---3---3---|-3---3-/-7---5---5-----5-----5---|

Guitar 2
   Bm      D       G                 G       Bm      A    
D|-2-------2-------3---------------|-3-------2-------5---------------|
A|-3-------3-------3---------------|-3-------3-------5---------------|
F|-4-------2-------4---------------|-4-------4-------6---------------|
C|-4-------4-------5---------------|-5-------4-------7---------------|
G|-2-------5-------5---------------|-5-------2-------7---------------|
D|---------2-------3---------------|-3---------------5---------------|

[Chorus]
D|---------|---------|
A|---------|---------|
F|---------|---------| (x4)
C|---------|---------|
G|-2---5---|---------|
D|-------3-|-3---7-5-|

D|---------|
A|-------7-|
F|-7-7-7---| (x16)
C|---------|
G|---------|
D|---------|

[Verse 2]
D|---------------------------------|---------------------------------|
A|---------------------------------|---------------------------------|
F|---------------------------------|---------------------------------|
C|---0---0---0---0---0---0---0---0-|---0---0---0---0---0---0---0---0-|
G|-2---2---2---2---2---2---2---2---|-2---2---2---2---2---2---2---2---|
D|---------------------------------|---------------------------------|

D|---------------------------------|---------------------------------|
A|---------------------------------|---------------------------------|
F|---------------------------------|---------------------------------|
C|---0---0---0---0---0---0---0---0-|---0---0---0-------0-----0-------|
G|-2---2---2/5-5-------------------|---------------4-----4-----4---4-|
D|-----------------3---3---3---3---|-3---3-/-7---5---5-----5-----5---|

D|---------------------------------|---------------------------------|
A|---------------------------------|---------------------------------|
F|---------------------------------|---------------------------------|
C|---0---0---0---0---0---0---0---0-|---0---0---0-------0-----0-------|
G|-2---2---2/5-5-------------------|---------------4-----4-----4---4-|
D|-----------------3---3---3---3---|-3---3-/-7---5---5-----5-----5---|

D|---------------------------------|---------------------------------|
A|---------------------------------|---------------------------------|
F|---------------------------------|---------------------------------|
C|---0---0---0---0---0---0---0---0-|---0---0---0-------0-----0-------|
G|-2---2---2/5-5-------------------|---------------4-----4-----4---4-|
D|-----------------3---3---3---3---|-3---3-/-7---5---5-----5-----5---|

[Chorus]
D|---------|---------|
A|---------|---------|
F|---------|---------| (x4)
C|---------|---------|
G|-2---5---|---------|
D|-------3-|-3---7-5-|

D|---------|
A|-------7-|
F|-7-7-7---| (x16)
C|---------|
G|---------|
D|---------|

[Solo] (Something like this)
D|-----------------14------17----------------------|   
A|-15\10--10---15--------------15--14--------------|   (Behind Solo something like Guitar 2 
F|---------------------14---------------12---9---7-|    with fast strumming)
C|-------------------------------------------------|
G|-------------------------------------------------|
D|-------------------------------------------------|

[Pre-Chorus]
Guitar 2
   Bm      D       G                 G       Bm      A    
D|-2-------2-------3---------------|-3-------2-------5---------------|
A|-3-------3-------3---------------|-3-------3-------5---------------| (1 strum each chord)
F|-4-------2-------4---------------|-4-------4-------6---------------|
C|-4-------4-------5---------------|-5-------4-------7---------------|
G|-2-------5-------5---------------|-5-------2-------7---------------|
D|---------2-------3---------------|-3---------------5---------------|

   Bm      D       G                 G       Bm      A    
D|-2-------2-------3---------------|-3-------2-------5---------------|
A|-3-------3-------3---------------|-3-------3-------5---------------| (1 strum each chord)
F|-4-------2-------4---------------|-4-------4-------6---------------|
C|-4-------4-------5---------------|-5-------4-------7---------------|
G|-2-------5-------5---------------|-5-------2-------7---------------|
D|---------2-------3---------------|-3---------------5---------------|

   Bm      D       G                 G       Bm      A  
D|-2-------2-------3---------------|-3-------2-------5---------------|
A|-3-------3-------3---------------|-3-------3-------5---------------| (fast down-strumming)
F|-4-------2-------4---------------|-4-------4-------6---------------|
C|-4-------4-------5---------------|-5-------4-------7---------------|
G|-2-------5-------5---------------|-5-------2-------7---------------|
D|---------2-------3---------------|-3---------------5---------------|

   Bm      D       G                 G       Bm      A    
D|-2-------2-------3---------------|-3-------2-------5---------------|
A|-3-------3-------3---------------|-3-------3-------5---------------| (fast down-strumming)
F|-4-------2-------4---------------|-4-------4-------6---------------|
C|-4-------4-------5---------------|-5-------4-------7---------------|
G|-2-------5-------5---------------|-5-------2-------7---------------|
D|---------2-------3---------------|-3---------------5---------------|

[Chorus]
D|---------------------------------|---------------------------------|
A|---------------------------------|---------------------------------|
F|---------------------------------|---------------------------------|
C|---0---0---0---0---0---0---0---0-|---0---0---0-------0-----0-------| (until the end)
G|-2---2---2/5-5-------------------|---------------4-----4-----4---4-|
D|-----------------3---3---3---3---|-3---3-/-7---5---5-----5-----5---|             
Submit corrections

↑ Back to top | Tablatures and chords for acoustic guitar and electric guitar, ukulele, drums are parodies/interpretations of the original songs. You may use it for private study, scholarship, research or language learning purposes only