Home » A » All Time Low »

All Time Low - Kids In The Dark Tabs

Artists:  A B C D E F G H I J K L M N O P Q R S T U V W X Y Z # 

Kids In The Dark Tabs

(ver. 1) Click to play this song!
All Time Low
 Rating:
4/5 (4 votes)
                Almost the entire song is just Cm# A E B  and for the bridge A E Cm# B


INTRO
e|-----------------------------------------------------------------------------| repeat 
B|-----------5--4-----4-----------2-0---0--------------------------------------|
G|-6--6------------6------2-2---------2-------------1---------4--4-------------|
D|-6--6---6---------------2-2---2----------2--2---2---4-2-4---4--4-----1-2-4---|
A|-4--4-------------------0-0--------------2--2---------------2--2---2---------|
E|-----------------------------------------0--0--------------------------------|

e|--------------------|
B|--------------------| Let ring
G|--2-----------------|
D|--2-----------------|
A|--0-----------------|
E|--------------------|


    CHORUS
e|------------------------------------| 
B|------------------------------------|
G|-6--6------2-2---------------4--4---|
D|-6--6------2-2-----2--2------4--4---|
A|-4--4------0-0-----2--2------2--2---|
E|-------------------0--0-------------|

e|-----------------------------------------------------------------------|
B|--5-5--5-4---4------2-2--2---------------------------------------------|
G|-----------6----------------4-2-4---1-1--1-----------------------------|
D|--------------------------------------------4-2-4-----1-1----1--2-4----|
A|-----------------------------------------------------------2-----------|
E|-----------------------------------------------------------------------|


BRIDGE
e|-----------------------------------------------------------------|
B|------------------------------------------4h5-4h5-2--------------|
G|-2---------6---4----------2-------6---4---------------2--2---2-2--|
D|-2----2----6---4----------2---2---6---4---------------2--2---2-2--|
A|-0----2----4---2---0------0---2---4---2---------------0--0---0-0--|
E|------0--------------4--------0----------------------------------|


    CHORUS
e|---------------------------------------| 
B|---------------------------------------|
G|-6--6------2-2------------------4--4---|
D|-6--6------2-2-----2--2---------4--4---|
A|-4--4------0-0-----2--2---------2--2---|
E|-------------------0--0--0-2-4---------|

e|-----------------------------------------------------------------------|
B|--5-5--5-4---4------2-2--2---------------------------------------------|
G|-----------6----------------4-2-4---1-1--1-----------------------------|
D|--------------------------------------------4-2-4-----1-1----1--2-4----|
A|-----------------------------------------------------------2-----------|
E|-----------------------------------------------------------------------|            
Submit corrections

↑ Back to top | Tablatures and chords for acoustic guitar and electric guitar, ukulele, drums are parodies/interpretations of the original songs. You may use it for private study, scholarship, research or language learning purposes only