Home » A » All Time Low »

All Time Low - Kicking And Screaming Tabs

Artists:  A B C D E F G H I J K L M N O P Q R S T U V W X Y Z # 

Kicking And Screaming Tabs

(ver. 3) Click to play this song!
All Time Low
 Rating:
4.4/5 (21 vote)
                (listen to the strumming)
Intro (Alex)
1234!
e|-----------------------------------------------------------------------------|
B|-----------------------------------------------------------------------------|
G|-----------------------------------------------------------------------------|
D|--4----11-----12-------4-----12----9------4------11-----12------7------11----|
A|--4----11-----12-------4-x8--12-x4-9--x4--4-x8---11-x4--12--x4--7--x8--11-x8-|
D|--4 x8-11 x4--12-x4----4-----12----9------4------11-----12------7------11----|

Verse (Alex)
SAY HELLO TO ALL MY LITTLE NIGHTMARES, THEY'RE RIGHT HERE, I KNOW THEM WELL
e|---------------------------------------------------------------------------------------|
B|---------------------------------------------------------------------------------------|
G|--------------------66-666-666-666--6-44-444-444-444--4-88-888--8-66-666-6-------------| x2
D|--44-444-444-444--4-66-666-666-666--6-44-444-444-444--4-88-888--8-66-666-6-------------|
A|--44-444-444-444--4-44 444-444-444  4-22-222-222-222--2-66-666--6-44-444 4-------------|
D|--44-444-444-444--4--------------------------------------------------------------------|

Pre-Chorus
I'M CHASING AFTER ROCK AND ROLL, KICKING AND SCREAMING
e|--------------------------------------------------------------------------------------|
B|--------------------------------------------------------------------------------------|
G|--4~~-8~~-6~~-------------------------------------------------------------------------|
D|--4~~-8~~-6~~-------------------------------------------------------------------------|
A|--2~~-6~~-4~~-------------------------------------------------------------------------|
D|--------------------------------------------------------------------------------------|

Chorus (Alex)
I'VE BEEN WAITING FOR YOU TO CALL
e|----------------------------------------------------------------------------|
B|----------------------------------------------------------------------------|
G|----------6-------4-------8------6------------------------------------------|
D|---4------6-x16---4-x16---8-x8---6-x8---------------------------------------|
A|---4-x16--4-------2-------6------4------------------------------------------|
D|---4------------------------------------------------------------------------|

(Alex)
SO LONG AND THANKS FOR ALL THE MAKE-BELIEVE, THE MEMORIES, OF YOU AND ME
e|----------------------------------------------------------------------------|
B|----------------------------------------------------------------------------|
G|----------6-------4-------8------6------------------------------------------|
D|---4------6-x16---4-x16---8-x8---6-x8---------------------------------------|
A|---4-x16--4-------2-------6------4------------------------------------------|
D|---4------------------------------------------------------------------------|

(Jack)
e|-----------------------------------------------------------------------------|
B|-----14----14----14---14----14----14---14--14--14--14--14--14--14------------|
G|--11----11----11----11-- 11----10----10--10--10---------------------15--15---|
D|-------------------------------------------------13--13--13--13---16--16--15-|
A|-----------------------------------------------------------------------------|
D|-----------------------------------------------------------------------------|

(Alex)
KICKING AND SCREAMING
e|------------------------------------------------------------------------------|
B|------------------------------------------------------------------------------|
G|--6\--------------------------------------------------------------------------|
D|--6\--(slide)-----------------------------------------------------------------|
A|--4\--------------------------------------------------------------------------|
D|------------------------------------------------------------------------------|

**Repeat Intro and Verse**

Intro (Alex)
e|-----------------------------------------------------------------------------|
B|-----------------------------------------------------------------------------|
G|-----------------------------------------------------------------------------|
D|--4----11-----12-------4-----12----9------4------11-----12------7------11----|
A|--4----11-----12-------4-x8--12-x4-9--x4--4-x8---11-x4--12--x4--7--x8--11-x8-|
D|--4 x8-11 x4--12-x4----4-----12----9------4------11-----12------7------11----|

Verse (Alex)
SAY GOODBYE TO ALL THE PRETTY FACES, DARK PLACES, I KNOW TOO WELL
e|---------------------------------------------------------------------------------------|
B|---------------------------------------------------------------------------------------|
G|--------------------66-666-666-666--6-44-444-444-444--4-88-888--8-66-666-6-------------|
D|--44-444-444-444--4-66-666-666-666--6-44-444-444-444--4-88-888--8-66-666-6-------------|
A|--44-444-444-444--4-44 444-444-444  4-22-222-222-222--2-66-666--6-44-444 4-------------|
D|--44-444-444-444--4--------------------------------------------------------------------|

(Jack)
DARK PLACES, I KNOW TOO WELL -- WHOAAAAAH
e|----------------------------------------------------------------------------------|
B|----------------------------------------------------------------------------------|
G|----------------------------------8-8-9-9-----------------------------------------|
D|------------------------------6 6---------9-9-------------------------------------|
A|----------------------------------------------------------------------------------|
D|----------------------------------------------------------------------------------|

(Alex)
HISTORY REPEATS ITSELF IN PHASES...
e|---------------------------------------------------------------------------------------|
B|---------------------------------------------------------------------------------------|
G|--------------------66-666-666-666--6-44-444-444-444--4-88-888--8-66-666-6-------------|
D|--44-444-444-444--4-66-666-666-666--6-44-444-444-444--4-88-888--8-66-666-6-------------|
A|--44-444-444-444--4-44 444-444-444  4-22-222-222-222--2-66-666--6-44-444 4-------------|
D|--44-444-444-444--4--------------------------------------------------------------------|

Pre-Chorus
I'M CHASING AFTER ROCK AND ROLL, KICKING AND SCREAMING
e|--------------------------------------------------------------------------------------|
B|--------------------------------------------------------------------------------------|
G|--4~~-8~~-6~~-------------------------------------------------------------------------|
D|--4~~-8~~-6~~-------------------------------------------------------------------------|
A|--2~~-6~~-4~~-------------------------------------------------------------------------|
D|--------------------------------------------------------------------------------------|

Chorus (Alex)
I'VE BEEN WAITING FOR YOU TO CALL
e|----------------------------------------------------------------------------|
B|----------------------------------------------------------------------------|
G|----------6-------4-------8------6------------------------------------------|
D|---4------6-x16---4-x16---8-x8---6-x8---------------------------------------|
A|---4-x16--4-------2-------6------4------------------------------------------|
D|---4------------------------------------------------------------------------|

(Alex)
SO LONG AND THANKS FOR ALL THE MAKE-BELIEVE, THE MEMORIES, OF YOU AND ME
e|----------------------------------------------------------------------------|
B|----------------------------------------------------------------------------|
G|----------6-------4-------8------6------------------------------------------|
D|---4------6-x16---4-x16---8-x8---6-x8---------------------------------------|
A|---4-x16--4-------2-------6------4------------------------------------------|
D|---4------------------------------------------------------------------------|

(Jack)
e|-----------------------------------------------------------------------------|
B|-----14----14----14---14----14----14---14--14--14--14--14--14--14------------|
G|--11----11----11----11-- 11----10----10--10--10---------------------15--15---|
D|-------------------------------------------------13--13--13--13---16--16--15-|
A|-----------------------------------------------------------------------------|
D|-----------------------------------------------------------------------------|

(Alex)
KICKING AND SCREAMING
e|------------------------------------------------------------------------------|
B|------------------------------------------------------------------------------|
G|--6\--------------------------------------------------------------------------|
D|--6\--(slide)-----------------------------------------------------------------|
A|--4\--------------------------------------------------------------------------|
D|------------------------------------------------------------------------------|

Solo
GO!
e|------------------------------------------------------------------------------------------|
B|---------11-11-9-9-------------9 9-----------------------------11-11-9-9------------------|
G|---/8~-8-----------11-11------------11-11--------------------------------11-11------------|
D|-------------------------11-11------------11~--8h9p8~-6~-/9~-9-----------------11-11------|
A|------------------------------------------------------------------------------------------|
D|------------------------------------------------------------------------------------------|

e|-------------------------------------------------14------14-------14------14--------14----|
B|------------------------------------------------------------------------------------------|
G|----------------------9-9-8-8--------------13-15----13-15---13-15----13-15---13--15----13-|
D|---8-8-----8-8--11-11---------11-11-9-9---------------------------------------------------|
A|-------9-9--------------------------------------------------------------------------------|
D|------------------------------------------------------------------------------------------|

e|--------13--------13--------13-------13------13---------------------------------------------|
B|--------------------------------------------------------------19t-18t-16t-14t-11~-11h12--9~-|
G|-11--13----11--13----11--13----11-13---11-13----11------------------------------------------|
D|--------------------------------------------------------------------------------------------|
A|--------------------------------------------------------------------------------------------|
D|--------------------------------------------------------------------------------------------|

Breakdown
SAY HELLO TO ALL MY LITTLE NIGHTMARES, THEY'RE RIGHT HERE, I KNOW THEM WELL.
e|------------------------------------------------------------------------------------------|
B|------------------------------------------------------------------------------------------|
G|------6--4--8-----------------------------------------------------------------------------|
D|---4--6--4--8----------//////pickslide\\\\\-----------------------------------------------|
A|---4--4--2--6-----------------------------------------------------------------------------|
D|---4--------------------------------------------------------------------------------------|

Chorus (Alex)
I'VE BEEN WAITING FOR YOU TO CALL...
e|----------------------------------------------------------------------------|
B|----------------------------------------------------------------------------|
G|----------6-------4-------8------6------------------------------------------|
D|---4------6-x16---4-x16---8-x8---6-x8---------------------------------------|
A|---4-x16--4-------2-------6------4------------------------------------------|
D|---4------------------------------------------------------------------------|

(Alex)
SO LONG AND THANKS FOR ALL THE MAKE-BELIEVE, THE MEMORIES, OF YOU AND ME
e|----------------------------------------------------------------------------|
B|----------------------------------------------------------------------------|
G|----------6-------4-------8------6------------------------------------------|
D|---4------6-x16---4-x16---8-x8---6-x8---------------------------------------|
A|---4-x16--4-------2-------6------4------------------------------------------|
D|---4------------------------------------------------------------------------|

(Jack)
e|------------------------------------------------------------------------------|
B|-----14----14----14---14----14----14---14--14--14--14--14--14--14-------------|
G|--11----11----11----11-- 11----10----10--10--10---------------------15--15----|
D|-------------------------------------------------13--13--13--13---16--16--15\-|
A|------------------------------------------------------------------------------|
D|------------------------------------------------------------------------------|

(Alex)
WE'RE KICKING AND SCREAMING!
e|---------------------------------------------------------------------------|
B|---------------------------------------------------------------------------|
G|--8------6\----------------------------------------------------------------|
D|--8-x8---6\----------------------------------------------------------------|
A|--6------4\----------------------------------------------------------------|
D|---------------------------------------------------------------------------|

Outro (Alex)
e|-----------------------------------------------------------------------------|
B|-----------------------------------------------------------------------------|
G|-----------------------------------------------------------------------------|
D|--4----11-----12-------4-----12----9------4------11-----12------7------11----|
A|--4----11-----12-------4-x8--12-x4-9--x4--4-x8---11-x4--12--x4--7--x8--11-x8-|
D|--4 x8-11 x4--12-x4----4-----12----9------4------11-----12------7------11----|            
Submit corrections

↑ Back to top | Tablatures and chords for acoustic guitar and electric guitar, ukulele, drums are parodies/interpretations of the original songs. You may use it for private study, scholarship, research or language learning purposes only