Home » A » All Time Low »

All Time Low - Jasey Rae Tabs

Artists:  A B C D E F G H I J K L M N O P Q R S T U V W X Y Z # 

Jasey Rae Tabs

(ver. 1) Click to play this song!
All Time Low
 Rating:
4/5 (4 votes)
                Tuning( e b g d A D )
p=pull off
~= let ring
*= palm mute
x-dead note
/=slide
tr=tremolo

intro
Gtr I
|-------------------------------------------------------------|
|--15p0-----------15p0------------15p0------------------------|
|------14p0--12p0------14p0--12p0------14p0-------------------|
|-------------------------------------------------------------|3x
|-------------------------------------------------------------|
|-------------------------------------------------------------|

|-------------------------------------------------------------|
|--15p0-----------15p0------------15--------------------------|
|------14p0--12p0------14p0--12p0-----------------------------|
|-------------------------------------------------------------|3x
|-------------------------------------------------------------|
|-------------------------------------------------------------|

|-12p0----------12p0-----------12p0---------------------------|
|------15p0----------15p0-----------15p0----------------------|
|----------14p0-----------14p0--------------------------------|2x
|-------------------------------------------------------------|
|-------------------------------------------------------------|
|-------------------------------------------------------------|

|-14p0----------14p0-----------14p0---------------------------|
|------15p0----------15p0----------15p0-----------------------|
|----------14p0-----------14p0--------------------------------|
|-------------------------------------------------------------|1x
|-------------------------------------------------------------|
|-------------------------------------------------------------|

|-12p0----------12p0-----------12p0---------------------------|
|------15p0----------15p0-----------15p0----------------------|
|----------14p0-----------14p0--------------------------------|
|-------------------------------------------------------------|2x
|-------------------------------------------------------------|
|-------------------------------------------------------------|

|-------------------------------------------------------------|
|-15151515151515151515151515/---------------------------------|
|-14141414141414141414141414/---------------------------------|
|-------------------------------------------------------------|
|-------------------------------------------------------------|
|-------------------------------------------------------------|

GtrII
|--------------------------------------------------------------------------|
|--------------------------------------------------------------------------|
|--------------------------------------------------------------------------|
|-5~~~-----4x---000000000000000-55555555-44444444-00000000-9999-7777-5~----|
|-5~~~-----4x---000000000000000-55555555-44444444-00000000-9999-7777-5~----|
|-5~~~-----4x---000000000000000-55555555-44444444-00000000-9999-7777-5~----|


|-------------------------------------------------------------|
|-------------------------------------------------------------|
|-------------------------------------------------------------|
|-~~~~~~~~~~~~~~~~~~~-5-0-0-0---------------------------------|
|-~~~~~~~~~~~~~~~~~~~-5-0-0-0---------------------------------|
|-~~~~~~~~~~~~~~~~~~~-5-0-0-0---------------------------------|
                        * * *

verse
Gtr I & II
|-------------------------------------------------------------|
|-------------------------------------------------------------|
|-------------------------------------------------------------|
|-0~----------------------------------------------------------|
|-0~----------------------------------------------------------|
|-0~----------------------------------------------------------|

Gtr I
|-------------------------------------------------------------|
|-------------------------------------------------------------|
|-------------14-14---------------14-14-----------------------|
|-11-12-11-12--------11-12-11-12-----------11-12-11-12--------|
|-------------------------------------------------------------|
|-------------------------------------------------------------|
  *  *  *  *  *   *   *  *  *  *  *   *   *  *  *  *  * 

Gtr I & II
|-------------------------------------------------------------|
|-------------------------------------------------------------|
|-------------------------------------------------------------|
|-9-9-9-9-9-9-9-9-9-9-9-9-9-7-7-7-7-7-7-7-7-7-7-7-7-7---------|
|-9-9-9-9-9-9-9-9-9-9-9-9-9-7-7-7-7-7-7-7-7-7-7-7-7-7---------|
|-9-9-9-9-9-9-9-9-9-9-9-9-9-7-7-7-7-7-7-7-7-7-7-7-7-7---------|
  * * * * * * * * * * * * * * * * * * * * * * * * * * 

Gtr I
|-------------------------------------------------------------|
|-------------------------------------------------------------|
|-------------------------------------------------------------|
|-/7~--4~-----7~--------------------5~--4~--------------------|
|----------------7~------4~--5~-----------------7~--5~--------|
|-------------------------------------------------------------|

GtrII
|-------------------------------------------------------------|
|-------------------------------------------------------------|
|-------------------------------------------------------------|
|-55-555------77-777-------99-9999------77-7777------5~-------|
|-55-555------77-777-------99-9999------77-7777------5~-------|
|-55-555------77-777-------99-9999------77-7777------5~-------|
  ** ***      ** ***       ** ****      ** ****      *

Chorus-
Gtr I
|-----------------------------|--------------------------------|
|-----------------------------|--------------------------------|
|-77777777-9999999-777777777~-|-777777-9999999-77777777777~----|
|-xxxxxxxx-xxxxxxx-xxxxxxxxx--|-xxxxxx-xxxxxxx-xxxxxxxxxxx-----|
|-55555555-7777777-555555555~-|-555555-7777777-55555555555~----|
|-----------------------------|--------------------------------|


Gtr II
|------------------------------------------|
|------------------------------------------|
|------------------------------------------|
|-000000000-7777777-5555555~~~~------------|2x
|-000000000-7777777-5555555~~~~------------|
|-000000000-7777777-5555555~~~~------------|

THEN..
Gtr I
|-------------------------------------------------------------|
|--15p0-----------15p0------------15p0------------------------|
|------14p0--12p0------14p0--12p0------14p0-------------------|
|-------------------------------------------------------------|3x
|-------------------------------------------------------------|
|-------------------------------------------------------------|

GtrII
|-------------------------------------------------------------|
|-------------------------------------------------------------|
|-------------------------------------------------------------|
|-0~----------------------------------------------------------|
|-0~----------------------------------------------------------|
|-0~----------------------------------------------------------|


verse2
Gtr I
|-------------------------------------------------------------|
|-------------------------------------------------------------|
|-4~--------6~---------4~------------2~-----------------------|
|-x---------x----------x-------------x------------------------|
|-2~--------4~---------2~------------0~-----------------------|
|-------------------------------------------------------------|


Gtr II
|------------------------------------------|
|------------------------------------------|
|------------------------------------------|
|-555555555-77777777-99999999-77777777-----|
|-555555555-77777777-99999999-77777777-----|
|-555555555-77777777-99999999-77777777-----|



Gtr I
|----------------------------------------------------------------------------|
|----------------------------------------------------------------------------|
|----------14-----14-----14---------------------14-----14-----14-------------|
|-12141214---12-14--12-14--12141214--11-14-11-14--11-14--11-14--11-14-11-14--|
|----------------------------------------------------------------------------|
|----------------------------------------------------------------------------|
  * * * *  * *  *  * * * * * * * *   *   *  *  * * *  * * *  * * *  * *  * 

|-------------------------------------------------------------|
|-------------------------------------------------------------|
|-44444444-6666666----7~--------------9~----------------------|
|-xxxxxxxx-xxxxxxx----x---------------x-----------------------|
|-22222222-4444444----5~--------------7~----------------------|
|-------------------------------------------------------------|

Gtr II
|---------------------------|
|---------------------------|
|---------------------------|
|-555555555-77777777--------|
|-555555555-77777777--------|
|-555555555-77777777--------|
  ********* ********
|-----------------------------|
|-----------------------------|
|-----------------------------|
|---99999999-77777777--5~-7~--|
|---99999999-77777777--5~-7~--|
|---99999999-77777777--5~-7~--|

Repeat chorus



Bridge

Gtr I
|-xx-xx-xx-xx--xx-xx-xx-xx-xx-xx-xx-xx-xx-xx-xx-xx--xx-xx-xx-xx-xx-xx-xx-xx-|
|-xx-xx-xx-xx--xx-xx-xx-xx-xx-xx-xx-xx-xx-xx-xx-xx--xx-xx-xx-xx-xx-xx-xx-xx-|
|-77-77-77-77--77-77-77-77-77-77-77-77-77-77-77-77--77-77-77-77-77-77-77-77-|
|-77-77-77-77--77-77-77-77-77-77-77-77-77-77-77-77--77-77-77-77-77-77-77-77-|
|-55-55-55-55--44-44-44-44-99-99-77-77-55-55-55-55--44-44-44-44-77-77-77-77-|
|-55-55-55-55--44-44-44-44-99-99-77-77-55-55-55-55--44-44-44-44-77-77-77-77-|

Gtr I
|-xx-xx-xx-xx--xx-xx-xx-xx-xx-xx-xx-xx-xx-xx-xx-xx--xx-xx-xx-xx-xx-xx-xx-xx-|
|-xx-xx-xx-xx--xx-xx-xx-xx-xx-xx-xx-xx-xx-xx-xx-xx--xx-xx-xx-xx-xx-xx-xx-xx-|
|-77-77-77-77--77-77-77-77-77-77-77-77-77-77-77-77--77-77-77-77-77-77-77-77-|
|-77-77-77-77--77-77-77-77-77-77-77-77-77-77-77-77--77-77-77-77-77-77-77-77-|
|-55-55-55-55--44-44-44-44-99-99-99-99-55-55-55-55--44-44-44-44-77-77-77-77-|
|-55-55-55-55--44-44-44-44-99-99-99-99-55-55-55-55--44-44-44-44-77-77-77-77-|

Gtr II
|--------------------------------------------------------------------------|
|--------------------------------------------------------------------------|
|--------------------------------------------------------------------------|
|-55555555-44444444-9999999999999999-55555555-44444444-7777777777777777----|
|-55555555-44444444-9999999999999999-55555555-44444444-7777777777777777----|
|-55555555-44444444-9999999999999999-55555555-44444444-7777777777777777----|
  ******** ******** **************** ******** ******** ****************
solo-
Gtr I
|-------------------------------------------------------------|
|-------------------------------------------------------------|
|-------14--------14--------14-------14---------14--------14--|
|-11-12-----11-12-----11-12-----11-12-----11-12-----11-12-----|3x
|-------------------------------------------------------------|
|-------------------------------------------------------------|

|-------------------------------------------------------------|
|-------------------------------------------------------------|
|-------14-14-12-12-11-11-------------------------------------|
|-11-12------------------14-14--------------------------------|
|-------------------------------------------------------------|
|-------------------------------------------------------------|


|-------------------------------------------------------------|
|-------------------------------------------------------------|
|-------14--------14--------14-------14---------14--------14--|
|-11-12-----11-12-----11-12-----11-12-----11-12-----11-12-----|3x
|-------------------------------------------------------------|
|-------------------------------------------------------------|

|-------------------------------------------------------------|
|-------------------------------------------------------------|
|-14tr---16tr---18tr----19tr~~~-------------------------------|
|-------------------------------------------------------------|
|-------------------------------------------------------------|
|-------------------------------------------------------------|

GtrII

|--------------------------------------------------------------------|
|--------------------------------------------------------------------|
|--------------------------------------------------------------------|
|-55555555-44444444-9999999999999-55555555-44444444-77777777777777~--|
|-55555555-44444444-9999999999999-55555555-44444444-77777777777777~--|
|-55555555-44444444-9999999999999-55555555-44444444-77777777777777~--|

then
Gtr I
|--------------------------------------------------------|
|--------------------------------------------------------|
|----------------------77777777----4-4-4-----2-2-2-2-2---|
|----------------------77777777----4-4-4-----2-2-2-2-2---|
|----------------------55555555----2-2-2-----0-0-0-0-0---|
|--------------------------------------------------------|

GtrII
|------------------------------------------------------|
|------------------------------------------------------|
|--------------------------------4-4-4-----2-2-2-2-2---|
|-55555555-44444444---00000000---4-4-4-----2-2-2-2-2---|
|-55555555-44444444---00000000---2-2-2-----0-0-0-0-0---|
|-55555555-44444444---00000000-------------------------|



Gtr I
|-------------------------------------------------------------|
|-------------------------------------------------------------|
|-------14--------14--------14-------14---------14--------14--|
|-11-12-----11-12-----11-12-----11-12-----11-12-----11-12-----|continued til 
|-------------------------------------------------------------|fade
|-------------------------------------------------------------|



GtrII
|------------------------------------------------------|
|------------------------------------------------------|
|--------------------------------4-4-4-----2-2-2-2-2---|
|-55555555-44444444---00000000---4-4-4-----2-2-2-2-2---|
|-55555555-44444444---00000000---2-2-2-----0-0-0-0-0---|
|-55555555-44444444---00000000-------------------------|


end
|------------------------------------------------------|
|------------------------------------------------------|
|------------------------------------------------------|
|-5-000-----0~-----------------------------------------|
|-5-000-----0~-----------------------------------------|
|-5-000-----0~-----------------------------------------|
    ***
            
Submit corrections

↑ Back to top | Tablatures and chords for acoustic guitar and electric guitar, ukulele, drums are parodies/interpretations of the original songs. You may use it for private study, scholarship, research or language learning purposes only