Home » A » All Time Low »

All Time Low - Dont You Go Tabs

Artists:  A B C D E F G H I J K L M N O P Q R S T U V W X Y Z # 

Dont You Go Tabs

(ver. 2) Click to play this song!
All Time Low
 Rating:
3.5/5 (24 votes)
                Tuning: Drop D
Intro x2 - Palm Mute
e|---------------------------------------------------------------------------|
B|---------------------------------------------------------------------------|
G|---------------------------------------------------------------------------|
D|---3---3---3---3---3---3---3---3---3---3---3---3---3---3---3---3---3---3---|
A|-1---1---1---1---1---1---1---1---1---1---1---1---1---1---1---1---1---1-----|
D|---------------------------------------------------------------------------|

e|---------------------------------------------------------------------------|
B|---------------------------------------------------------------------------|
G|---------------------------------------------------------------------------|
D|---1---1---1---1-------------------------------------3---3---3---3---------|
A|-1---1---1---1-------------3---3---3---3-----------1---1---1---1-----------|
D|-------------------------3---3---3---3-------------------------------------|
Pre-Chorus:
e|---------------------------------------------------------------------------|
B|---------------------------------------------------------------------------|
G|---------------------------------------------------------------------------|
D|-1~------3~----------------------------------------------------------------|
A|-1~------3~----------------------------------------------------------------|
D|-1~------3~----------------------------------------------------------------|
Chorus:
e|---------------------------------------------------------------------------|
B|---------------------------------------------------------------------------|
G|---------------------------------------------------------------------------|x2
D|-8-8--8-8----1-1--1-1----5-5-5-5----1-1-1-1----3-3-3-3-3-3-3-3-------------|
A|-8-8--8-8----1-1--1-1----5-5-5-5----1-1-1-1----3-3-3-3-3-3-3-3-------------|
D|-8-8--8-8----1-1--1-1----5-5-5-5----1-1-1-1----3-3-3-3-3-3-3-3-------------|

e|---------------------------------------------------------------------------|
B|---------------------------------------------------------------------------|
G|---------------------------------------------------------------------------|
D|-8-8--8-8----1-1--1-1----5-5----1-1----3~----------------------------------|
A|-8-8--8-8----1-1--1-1----5-5----1-1----3~----------------------------------|
D|-8-8--8-8----1-1--1-1----5-5----1-1----3~----------------------------------|
Repeat Intro 
Repeat Chorus
                                  
Bridge:
e|---------------------------------------------------------------------------|
B|---------------------------------------------------------------------------|
G|---------------------------------------------------------------------------|x2
D|-5-5-5-5-5-5-5-5--0-0-0-0-0-0-0-0--1-1-1-1-1-1-1-1--3-3-3-3-3-3-3-3--------|Let last note ring
A|-5-5-5-5-5-5-5-5--0-0-0-0-0-0-0-0--1-1-1-1-1-1-1-1--3-3-3-3-3-3-3-3--------|2nd time
D|-5-5-5-5-5-5-5-5--0-0-0-0-0-0-0-0--1-1-1-1-1-1-1-1--3-3-3-3-3-3-3-3--------|
Repeat Chorus - Start On 1st Fret
                                   
Outro: 
e|---------------------------------------------------------------------------|
B|---------------------------------------------------------------------------|
G|---------------------------------------------------------------------------|x2
D|-8-8-8-8-8-8-8-8--1-1-1-1-1-1-1-1--5-5-5-5--1-1-1-1--3-3-3-3-3-3-3-3-------|Let last note ring 
A|-8-8-8-8-8-8-8-8--1-1-1-1-1-1-1-1--5-5-5-5--1-1-1-1--3-3-3-3-3-3-3-3-------|2nd time
D|-8-8-8-8-8-8-8-8--1-1-1-1-1-1-1-1--5-5-5-5--1-1-1-1--3-3-3-3-3-3-3-3-------|

e|---------------------------------------------------------------------------|
B|---------------------------------------------------------------------------|
G|---------------------------------------------------------------------------|
D|---3---3---3---3---3---3---3---3---3---3---3---3---3---3---3---3---3---3---|
A|-1---1---1---1---1---1---1---1---1---1---1---1---1---1---1---1---1-----1---|
D|---------------------------------------------------------------------------|
            
Submit corrections

↑ Back to top | Tablatures and chords for acoustic guitar and electric guitar, ukulele, drums are parodies/interpretations of the original songs. You may use it for private study, scholarship, research or language learning purposes only