Home » A » All Time Low »

All Time Low - Dirty Laundry Tabs

Artists:  A B C D E F G H I J K L M N O P Q R S T U V W X Y Z # 

Dirty Laundry Tabs

(ver. 1) Click to play this song!
All Time Low
 Rating:
4.3/5 (21 vote)
                [Verse 1]

e|-----------------------------------------------------------------------------|
B|-----1-------1----1------1--------1----------1------1---1------1--------1----|
G|---0---0---------------0---0----0---0------0---0-------------0---0----0---0--|
D|-----------2----3---------------------------------2----3---------------------| Repeat
A|-3-------------------0-------------------3-----------------0-----------------|
E|------------------------------3-------------------------------------3--------|

[Interlude]

e|---------------------------------------------------------------------------|
B|---------------------10----------------------------------------------------|
G|-x-x-9--9--9--9--9-9-----9--9--9--9--9\5-----------------------------------|
D|---------------------------------------------------------------------------| Repeat
A|---------------------------------------------------------------------------|
E|---------------------------------------------------------------------------|

[Verse 2]

e|-----------------------------------------------------------------------------|
B|-----1-------1----1------1--------1----------1------1---1------1--------1----|
G|---0---0---------------0---0----0---0------0---0-------------0---0----0---0--|
D|-----------2----3---------------------------------2----3---------------------| Repeat
A|-3-------------------0-------------------3-----------------0-----------------|
E|------------------------------3-------------------------------------3--------|

[Chorus]

e|---------------------------------------------------------------------------|
B|-----1--------1--------1----------0-------1--------1------1---------0------|
G|------------0-------------------0----------------0----------------0--------|
D|---3------2----------2------------------3------2--------2-------0----------| Repeat
A|-3------3----------0---------2--------3------3--------0--------------------|
E|---------------------------0---------------------------------3-------------|

[No guitar in Verse 3]

[Chorus]

e|---------------------------------------------------------------------------|
B|-----1--------1--------1----------0-------1--------1------1---------0------|
G|------------0-------------------0----------------0----------------0--------|
D|---3------2----------2------------------3------2--------2-------0----------| Repeat
A|-3------3----------0---------2--------3------3--------0--------------------|
E|---------------------------0---------------------------------3-------------|

[Interlude]

e|---------------------------------------------------------------------------|
B|---------------------10----------------------------------------------------|
G|-x-x-9--9--9--9--9-9-----9--9--9--9--9\5-----------------------------------|
D|---------------------------------------------------------------------------| Repeat
A|---------------------------------------------------------------------------|
E|---------------------------------------------------------------------------|

[Solo]

e|-------------------------------------------------------------------------------|
B|----5-----8-----------------5-----8------------5----8-----------5---8--5-------|
G|-------7-----7b8r7--5----------7-----7b8r7--------7---7b8r7-------7------7-----|
D|-7-----------------------7-------------------7----------------7----------------|
A|-------------------------------------------------------------------------------|
E|-------------------------------------------------------------------------------|

[Final Chorus]

e|---------------------------------------------------------------------------|
B|---------------------------------------------------------------------------|
G|-------5-5-5-5-5-------------------------5-5-5-5-5-------------------------|
D|-3-3-3-5-5-5-5-5--7-7-7-5-5-5-5-5--3-3-3-5-5-5-5-5-7-7-7-2-2-2-2-2---------| Repeat
A|-3-3-3-3-3-3-3-3--7-7-7-5-5-5-5-5--3-3-3-3-3-3-3-3-7-7-7-2-2-2-2-2---------|
E|-1-1-1------------5-5-5-3-3-3-3-3--1-1-1-----------5-5-5-0-0-0-0-0---------|            
Submit corrections

↑ Back to top | Tablatures and chords for acoustic guitar and electric guitar, ukulele, drums are parodies/interpretations of the original songs. You may use it for private study, scholarship, research or language learning purposes only