Home » A » All Time Low »

All Time Low - Coffee Shop Soundtrack Tabs

Artists:  A B C D E F G H I J K L M N O P Q R S T U V W X Y Z # 

Coffee Shop Soundtrack Tabs

(ver. 3) Click to play this song!
All Time Low
(Intro)
E|------------|
B|------------|
G|----6666----|(5x)
D|----66667777|
A|----44447777|
E|--------5555|


E|------------------------------------|
B|------------------------------------|
G|----9-9-9-9-9-9-9-9-----------------|
D|----9-9-9-9-9-9-9-9-9-9-9-9-9-9-9-9-|
A|----7-7-7-7-7-7-7-7-9-9-9-9-9-9-9-9-|
E|--------------------7-7-7-7-7-7-7-7-|


E|------------|
B|------------|
G|----6666----|(5x)
D|----66667777|
A|----44447777|
E|--------5555|


E|------------------------------------|
B|------------------------------------|
G|----9-9-9-9-9-9-9-9-----------------|
D|----9-9-9-9-9-9-9-9-9-9-9-9-9-9-9-9-|
A|----7-7-7-7-7-7-7-7-9-9-9-9-9-9-9-9-|
E|--------------------7-7-7-7-7-7-7-7-|
            
Submit corrections

↑ Back to top | Tablatures and chords for acoustic guitar and electric guitar, ukulele, drums are parodies/interpretations of the original songs. You may use it for private study, scholarship, research or language learning purposes only