Home » A » All Time Low »

All Time Low - Break Your Little Heart Bass

Artists:  A B C D E F G H I J K L M N O P Q R S T U V W X Y Z # 

Break Your Little Heart Bass

(ver. 1) Click to play this song!
All Time Low
[Intro]
G|----------------|----------------------------|----------------------------|
D|----------------|----------------------------|----------------------------|
A|----------------|----------------------------|----------------------------|
E|-----------12s--|--2--------2--2-------------|--4--------4--4-------------|

G|----------------------------|----------------------------|
D|----------------------------|----------------------------|
A|-----0----------------------|----------------------------|
E|--6--------6--6-------------|--6--------6--9-----4-------|

G|----------------------------|----------------------------|
D|----------------------------|----------------------------|
A|----------------------------|----------------------------|
E|--2--------2--2-------------|--4--------4--4-------------|

G|----------------------------|----------------------------|
D|----------------------------|----------------------------|
A|----------------------------|--------------4-------------|
E|--6--------6--6-------------|--6--------6--------4-------|

[Verse 1]
G|----------------|----------------|----------------|
D|----------------|----------------|----------------|
A|----------------|--------4-------|----------------|
E|--2-------------|-----------4----|--6-------------|

G|----------------|----------------------------|----------------------------|
D|----------------|----------------------------|----------------------------|
A|--------4-------|----------------------------|----------------------------|
E|-----------4----|--2--2--2--2--2--2--2--2----|--4--4--4--4--4--4--4--4----|

G|----------------------------|----------------------------|
D|----------------------------|----------------------------|
A|----------------------------|----------------------------|
E|--6--6--6--6--6--6--6--6----|--6--6--6--6--9-----4-------|

G|----------------|----------------|----------------|
D|----------------|----------------|----------------|
A|----------------|--------4-------|----------------|
E|--2-------------|-----------4----|--6-------------|

G|----------------|----------------------------|----------------------------|
D|----------------|----------------------------|----------------------------|
A|--------4-------|----------------------------|----------------------------|
E|-----------4----|--2--2--2--2--2--2--2--2----|--4--4--4--4--4--4--4--4----|

G|----------------------------|----------------------------|
D|----------------------------|--4--4--4--4--4-------------|
A|----------------------------|----------------------------|
E|--2--2--2--2--2--2--2--2----|----------------------------|

[Chorus]
G|----------------------------|----------------------------|
D|----------------------------|----------------------------|
A|--4--4--4--4--4--4--4--4----|----------------------------|
E|----------------------------|--4--4--4--4--4--4--4--4----|

G|----------------------------|----------------------------|
D|----------------------------|----------------------------|
A|----------------------------|----------------------------|
E|--6--6--6--6--6--6--6--6----|--2--2--2--2--2--2--2--2----|

G|----------------------------|----------------------------|
D|----------------------------|----------------------------|
A|----------------------------|----------------------------|
E|--6--6--6--6--6--6--6--6----|--4--4--4--4--4--4--4--4----|

G|----------------------------|----------------------------|
D|--4--4--4--4--4--4--4--4----|--4-------------------------|
A|----------------------------|----------------------------|
E|----------------------------|----------------------------|

[Intro]
G|----------------|----------------------------|----------------------------|
D|----------------|----------------------------|----------------------------|
A|----------------|----------------------------|----------------------------|
E|-----------12s--|--2--------2--2-------------|--4--------4--4-------------|

G|----------------------------|----------------------------|
D|----------------------------|----------------------------|
A|-----0----------------------|----------------------------|
E|--6--------6--6-------------|--6--------6--9-----4-------|

G|----------------------------|----------------------------|
D|----------------------------|----------------------------|
A|----------------------------|----------------------------|
E|--2--------2--2-------------|--4--------4--4-------------|

G|----------------------------|----------------------------|
D|----------------------------|----------------------------|
A|----------------------------|--------------4-------------|
E|--6--------6--6-------------|--6--------6--------4-------|

[Verse 2]
G|----------------|----------------|----------------|
D|----------------|----------------|----------------|
A|----------------|--------4-------|----------------|
E|--2-------------|-----------4----|--6-------------|

G|----------------|----------------------------|----------------------------|
D|----------------|----------------------------|----------------------------|
A|--------4-------|----------------------------|----------------------------|
E|-----------4----|--2--2--2--2--2--2--2--2----|--4--4--4--4--4--4--4--4----|

G|----------------------------|----------------------------|
D|----------------------------|----------------------------|
A|----------------------------|----------------------------|
E|--6--6--6--6--6--6--6--6----|--6--6--6--6--9-----4-------|

G|----------------|----------------|----------------|
D|----------------|----------------|----------------|
A|----------------|--------4-------|----------------|
E|--2-------------|-----------4----|--6-------------|

G|----------------|----------------------------|----------------------------|
D|----------------|----------------------------|----------------------------|
A|--------4-------|----------------------------|----------------------------|
E|-----------4----|--2--2--2--2--2--2--2--2----|--4--4--4--4--4--4--4--4----|

G|----------------------------|----------------------------|
D|----------------------------|--4--4--4--4--4-------------|
A|----------------------------|----------------------------|
E|--2--2--2--2--2--2--2--2----|----------------------------|

[Chorus]
G|----------------------------|----------------------------|
D|----------------------------|----------------------------|
A|--4--4--4--4--4--4--4--4----|----------------------------|
E|----------------------------|--4--4--4--4--4--4--4--4----|

G|----------------------------|----------------------------|
D|----------------------------|----------------------------|
A|----------------------------|----------------------------|
E|--6--6--6--6--6--6--6--6----|--2--2--2--2--2--2--2--2----|

G|----------------------------|----------------------------|
D|----------------------------|----------------------------|
A|----------------------------|----------------------------|
E|--6--6--6--6--6--6--6--6----|--4--4--4--4--4--4--4--4----|

G|----------------------------|----------------------------|
D|----------------------------|-----------4--3-------------|
A|----------------------------|--------4--------4----------|
E|--2--2--2--2--2--2--2--2----|--2--4--------------6--4----|

G|----------------------------|----------------------------|
D|----------------------------|----------------------------|
A|--4--4--4--4--4--4--4--4----|----------------------------|
E|----------------------------|--4--4--4--4--4--4--4--4----|

G|----------------------------|----------------------------|
D|----------------------------|----------------------------|
A|----------------------------|----------------------------|
E|--6--6--6--6--6--6--6--6----|--2--2--2--2--2--2--2--2----|

G|----------------------------|----------------------------|
D|----------------------------|----------------------------|
A|----------------------------|----------------------------|
E|--6--6--6--6--6--6--6--6----|--4--4--4--4--4--4--4--4----|

G|----------------------------|----------------------------|
D|----------------------------|----------------------------|
A|----------------------------|----------------------------|
E|--2--2--2--2--2--2--2--2----|--2-------------------------|

[Bridge]
G|----------------------------|----------------------------|
D|----------------------------|----------------------------|
A|----------------------------|-----------------------4----|
E|--6--6--6--6--6--6--6--6----|--2--2--2--2--2--2--2-------|

G|----------------------------|----------------------------|
D|----------------------------|----------------------------|
A|--4--4--4--4--4--4--4--4----|----------------------------|
E|----------------------------|--4--4--4--4--4--4--4--6----|

G|----------------------------|----------------------------|
D|----------------------------|----------------------------|
A|----------------------------|----------------------------|
E|--6--6--6--6--6--6--6--6----|--2--2--2--2--2--2--2--2----|

G|----------------------------|----------------------------|
D|----------------------------|----------------------------|
A|--4--------4----------------|----------------------------|
E|--------------------4-------|----------------------------|

[Solo]
G|----------------------------|----------------------------|
D|----------------------------|----------------------------|
A|--4--4--4--4--4--4--4--4----|----------------------------|
E|----------------------------|--4--4--4--4--4--4--4--4----|

G|----------------------------|----------------------------|
D|----------------------------|----------------------------|
A|----------------------------|----------------------------|
E|--6--6--6--6--6--6--6--6----|--2--2--2--2--2--2--2--2----|

G|----------------------------|----------------------------|
D|----------------------------|----------------------------|
A|----------------------------|----------------------------|
E|--6--6--6--6--6--6--6--6----|--4--4--4--4--4--4--4--4----|

G|----------------------------|----------------------------|
D|----------------------------|--4--4--4--4--4-------------|
A|----------------------------|----------------------------|
E|--2--2--2--2--2--2--2--2----|----------------------------|

[Chorus]
G|----------------------------|
D|----------------------------|
A|----------------------------|
E|--4--4--4--4--4--4--4--4----|

G|----------------------------|----------------------------|
D|----------------------------|----------------------------|
A|----------------------------|----------------------------|
E|--6--6--6--6--6--6--6--6----|--2--2--2--2--2--2--2--2----|

G|----------------------------|----------------------------|
D|----------------------------|----------------------------|
A|----------------------------|----------------------------|
E|--6--6--6--6--6--6--6--6----|--4--4--4--4--4--4--4--4----|

G|----------------------------|----------------------------|
D|----------------------------|-----------4--3-------------|
A|----------------------------|--------4--------4----------|
E|--2--2--2--2--2--2--2--2----|--2--4--------------6--4----|

G|----------------------------|----------------------------|
D|----------------------------|----------------------------|
A|--4--4--4--4--4--4--4--4----|----------------------------|
E|----------------------------|--4--4--4--4--4--4--4--4----|

G|----------------------------|----------------------------|
D|----------------------------|----------------------------|
A|----------------------------|----------------------------|
E|--6--6--6--6--6--6--6--6----|--2--2--2--2--2--2--2--2----|

G|----------------------------|----------------------------|
D|----------------------------|----------------------------|
A|----------------------------|----------------------------|
E|--6--6--6--6--6--6--6--6----|--4--4--4--4--4--4--4--4----|

G|----------------------------|----------------------------|
D|--4--4--4--4--4--4--4--4----|--4-------------------------|
A|----------------------------|----------------------------|
E|----------------------------|----------------------------|            
Submit corrections

↑ Back to top | Tablatures and chords for acoustic guitar and electric guitar, ukulele, drums are parodies/interpretations of the original songs. You may use it for private study, scholarship, research or language learning purposes only