Home » A » All Time Low »

All Time Low - A Love Like War Tabs

Artists:  A B C D E F G H I J K L M N O P Q R S T U V W X Y Z # 

A Love Like War Tabs

(ver. 9) Click to play this song!
All Time Low
 Rating:
4.3/5 (6 votes)
                [Intro]

D#|---------------------------------------------------------------------------|
A#|---------------------------------------------------------------------------|
F#|-6666----------------6666--------------------------------------------------|
C#|-4444-4-6\-----6-7---6666--7-4----3-5-6------------------------------------|     x6
G#|-5555-5-7\---7-------4444--7-4---------------------------------------------|
C#|---------------------------7-4---------------------------------------------|

[Pre Chorus]

D#|---------------------------------------------------------------------------|
A#|---------------------------------------------------------------------------|
F#|---------------------------------------------------------------------------|
C#|---7--6--4-----------------------------------------------------------------|
G#|---7--6--4-----------------------------------------------------------------|
C#|---7--6--4-----------------------------------------------------------------|


[1st Playthrough of Chorus]

D#|---------------------------------------------------------------------------|
A#|---------------------------------------------------------------------------|
F#|---------------------------------------------------------------------------|
C#|---------------------------------------------------------------------------|   x2
G#|-5-(x14)--4- (x2)--2(x8)---------------------------------------------------|
C#|--------------------------2(x8)---4(x14)---6(x2)---7(x16)------------------|

D#|---------------------------------------------------------------------------|
A#|---------------------------------------------------------------------------|
F#|-6666--------xxx-xxx----- 6666---------------------------------------------|  x2
C#|-4444-4-6\---xxx-xxx------6666--7-4-444444---------------------------------|
G#|-5555-5-7\---xxx-xxx------4444--7-4-444444---------------------------------|
C#|--------------------------------7-4-444444---------------------------------|

[Chorus For The Rest Of The Song]

D#|---------------------------------------------------------------------------|
A#|---------------------------------------------------------------------------|
F#|-7--------6--------4-------------------------------------------------------|
C#|-7--------6--------4------2-------4--------6-------7-----------------------|  x2
G#|-5-(x14)--4- (x2)--2(x8)--2-------4--------6-------7-----------------------|
C#|--------------------------2(x8)---4(x14)---6(x2)---7(x16)------------------|

D#|---------------------------------------------------------------------------|
A#|---------------------------------------------------------------------------|
F#|-6666--------xxx-xxx----- 6666---------------------------------------------|
C#|-4444-4-6\---xxx-xxx------6666--7-4-444444---------------------------------|   x2
G#|-5555-5-7\---xxx-xxx------4444--7-4-444444---------------------------------|
C#|--------------------------------7-4-444444---------------------------------|

 [Solo]

D#|----------------------------------------------------------------------------------------------------|
A#|--10-10-------10-10-----9-9-----9-9-----99---99------10-10-------10-10------------------------------|
F#|--------11-11-------11------9-9-----99-----99---99----------11-11--------11-------------------------|  x2
C#|----------------------------------------------------------------------------------------------------|
G#|----------------------------------------------------------------------------------------------------|
C#|----------------------------------------------------------------------------------------------------|

D#|---------------------------------------------------------------------------|
A#|--------9---10--12---14----10----------------------------------------------|
F#|----11---------------------------------------------------------------------|
C#|---------------------------------------------------------------------------|
G#|---------------------------------------------------------------------------|
C#|---------------------------------------------------------------------------|            
Submit corrections

↑ Back to top | Tablatures and chords for acoustic guitar and electric guitar, ukulele, drums are parodies/interpretations of the original songs. You may use it for private study, scholarship, research or language learning purposes only