» » »

All That Remains - Indictment Tabs

Artists:  A B C D E F G H I J K L M N O P Q R S T U V W X Y Z # 

Indictment Tabs

(ver. 2) Click to play this song!
All That Remains
 Rating:
4/5 (4 votes)

 Indictment lessons Tabs too difficult? Try these video lessons and learn fast
 
                Indictment
tuning: D; full step down

so this is completey my interpretation on how to play this song. all learned by ear and 
not based on any other tabs. the parts should all be in order, look at it carefully, 
i hated looking at tabs that were jumbled.


intro
repeat 3x
shown in order

|-------------------------------------|
|-------------------------------------|
|-------------------------------------|
|-------------------------------------|
|----------7-8-7------10-8-7--7-8-----|
|--00000000-----000000------00--------|
   ........     ......      ..

|-------------------------------------|
|-------------------------------------|
|-------------------------------------|
|-------------------------------------|
|----------7-8-7------5-7----3-5------|
|--00000000-----000000---0000---------|
   ........     ......   ....

|-------------------------------------|
|-------------------------------------|
|-------------------------------------|
|-------------------------------------|
|----------7-8-7------10-8-7--7-8-----|
|--00000000-----000000------00--------|
   ........     ......      ..

|-------------------------------------|
|-------------------------------------|
|-------------------------------------|
|--------------------------7\5--------|
|------7\5-5555-5\3--5/7---5\3---4/5--|
|--0000--------------3/5-0-----0-2/3--|
   ....    ....          .     .

-00:28
bridge to chorus
repeat 4x

|-------------------------------------------------|
|-------------------------------------------------|
|----------------------9\8-------11-------9\8--9--|
|-------------------------------------------------|
|--2-------------------7\6-------9--------7\6--7--|
|--0-0-0-3-2-1-0-000-0-----0-000----000-0---------|
     . . . . . . ... .     . ...    ... .
---------------------
                                 ^ ^ ^ ^ ^ ^ ^ ^ ^ ^
To be very specific, on this part above, you might try it different because it sounds 
different
I would perfer it this way: basicly adding a string to the chord

   original                  alternate 1             alternate 2
|-----------------|      >-----------------|        >-----------------|
|-----------------|      >-----------------|        >-----------------|
|11-------9\8--9--|      >11-------9\8--9--|        >11-------9\8--9--|
|-----------------|      >-----------------|        >---------9\8--9--|
|9--------7\6--7--|      >9--------7\6--7--|        >9--------7\6--7--|
|---000-0---------|      >---000-0-7\6--7--|        >---000-0-7\6--7--|
    ... .                    ... .                      ... .
---------------------



-00:47
chorus
repeat 4x

|------------------------------------------------------------|
|------------------------------------------------------------|
|------------------------------------------------------------|
|------------------------------------------------------------|
|--2----------------------------------------10----9-----6/7--|
|--0---0-0-3-2-1-0-000--000-000---000-000-00---000--000------|
       . . . . . . ...  ... ...   ... ... ..   ...  ...


-01:10
interlude
repeat 2x

|-------------------------------------|
|-------------------------------------|
|-------------------------------------|
|-------------------------------------|
|----------7-8-7------10-8-7--7-8-----|
|--00000000-----000000------00--------|
   ........     ......      ..

|-------------------------------------|
|-------------------------------------|
|-------------------------------------|
|-------------------------------------|
|----------7-8-7------5-7----3-5------|
|--00000000-----000000---0000---------|
   ........     ......   ....

|-------------------------------------|
|-------------------------------------|
|-------------------------------------|
|-------------------------------------|
|----------7-8-7------10-8-7--7-8-----|
|--00000000-----000000------00--------|
   ........     ......      ..

|-------------------------------------|
|-------------------------------------|
|-------------------------------------|
|--------------------------7\5--------|
|------7\5-5555-5\3--5/7---5\3---4/5--|
|--0000--------------3/5-0-----0-2/3--|
   ....    ....          .     .



-01:29
chorus
shown in order

|------------------------------------------------------------|
|------------------------------------------------------------|
|------------------------------------------------------------|
|------------------------------------------------------------|
|--2----------------------------------------10----9-----6/7--|
|--0---0-0-3-2-1-0-000--000-000---000-000-00---000--000------|
       . . . . . . ...  ... ...   ... ... ..   ...  ...

|------------------------------------------------------------|
|------------------------------------------------------------|
|------------------------------------------------------------|
|------------------------------------------------------------|
|--2----------------------------------------10----9-----6/7--|
|--0---0-0-3-2-1-0-000--000-000---000-000-00---000--000------|
       . . . . . . ...  ... ...   ... ... ..   ...  ...

                      ~        ~         ~
|------------------------------------------------------------|
|------------------------------------------------------------|
|------------------------------------------------------------|
|------------------------------------------------------------|
|--2----------------------------------------10----9-----6/7--|
|--0---0-0-3-2-1-0-000--000-000---000-000-00---000--000------|
       . . . . . . ...  ... ...   ... ... ..   ...  ...

                      ~        ~         ~
|------------------------------------------------------------|
|------------------------------------------------------------|
|------------------------------------------------------------|
|------------------------------------------------------------|
|--2----------------------------------------10----9-----6/7--|
|--0---0-0-3-2-1-0-000--000-000---000-000-00---000--000------|
       . . . . . . ...  ... ...   ... ... ..   ...  ...


-01:50
second bridge
shown in order

guitar I
|---------------------------------------------|
|---------------------------------------------|
|--9------8------11---12------11-----14-------|
|---------------------------------------------|
|--7------6------9----10------9------12-------|
|----0000---0000---00----0000---0000-----0-0--|

guitar I
|---------------------------------------------|
|---------------------------------------------|
|--9------8------11---12------11-----14-------|
|---------------------------------------------|
|--7------6------9----10------9------12-------|
|----0000---0000---00----0000---0000-----0-0--|

guitar 1
|----------------------------------------------------------|
|----------------------------------------------------------|
|--9---------8--------11------12--------11--------14-------|
|----------------------------------------------------------|
|--7---------6--------9-------10--------9---------12-------|
|-------0000-----0000-----00-------0000------0000-----0-0--|
|guitar 2
|----------------------------------------------------------|
|----------------------------------------------------------|
|--1212------1111-----1414----1616------1414------1717-----|
|----------------------------------------------------------|
|--1010------99-------1212----1414------1212------1515-----|
|-------0000-----0000------00------0000------0000-----0-0--|

guitar 1
|----------------------------------------------------------|
|----------------------------------------------------------|
|--9---------8--------11------12--------11--------14-------|
|----------------------------------------------------------|
|--7---------6--------9-------10--------9---------12-------|
|-------0000-----0000-----00-------0000------0000-----0-0--|
|guitar 2
|----------------------------------------------------------|
|----------------------------------------------------------|
|--1212------1111-----1414----1616------1414------1717-----|
|----------------------------------------------------------|
|--1010------99-------1212----1414------1212------1515-----|
|-------0000-----0000------00------0000------0000-----0-0--|



-02:10
interlude before solo
shown in order

|-------------------------------------|
|-------------------------------------|
|-------------------------------------|
|-------------------------------------|
|----------7-8-7------10-8-7--7-8-----|
|--00000000-----000000------00--------|
   ........     ......      ..

|-------------------------------------|
|-------------------------------------|
|-------------------------------------|
|-------------------------------------|
|----------7-8-7------5-7----3-5------|
|--00000000-----000000---0000---------|
   ........     ......   ....

|-------------------------------------|
|-------------------------------------|
|-------------------------------------|
|-------------------------------------|
|----------7-8-7------10-8-7--7-8-----|
|--00000000-----000000------00--------|
   ........     ......      ..

|-------------------------------------|
|-------------------------------------|
|-------------------------------------|
|--------------------------7\5--------|
|------7\5-5555-5\3--5/7---5\3---4/5--|
|--0000--------------3/5-0-----0-2/3--|WATCHOUT!!
   ....    ....          .     .

~sorry, no solo, i haven't perfected it yet.

-02:40
bridge to outtro
repeat 4x

|-------------------------------------------------|
|-------------------------------------------------|
|----------------------9\8-------11-------9\8--9--|
|-------------------------------------------------|
|--2-------------------7\6-------9--------7\6--7--|
|--0-0-0-3-2-1-0-000-0-----0-000----000-0---------|
     . . . . . . ... .     . ...    ... .

-02:59
outtro - played slower, listen to the song for timing.

|-------------------------------------------------------------|
|-------------------------------------------------------------|
|--4----------------------------------------------------------|
|--2----------------------------------------------------------|
|--2-------2-----------------------------------------3--2-----|
|--0---/10\0--0-0-3-2-1-0-000---000-000---000-000----------3--|

                                              *
|---------------------------------------------------|
|---------------------------------------------------|
|---------------------------------------------------|
|---------------------------------------------------|
|--2------------------------------------------------|
|--0--0-0-3-2-1-0-000---000-000---000-000-----5-----|


|---------------------------------------------------|
|---------------------------------------------------|
|---------------------------------------------------|
|---------------------------------------------------|
|2-----------------------------------------3--2-----|
|0--0-0-3-2-1-0-000---000-000---000-000----------3--|

|------------------------------------------------------|
|------------------------------------------------------|
|------------------------------------------------------|
|------------------------------------------------------|
|2-----------------------------------------3--2-----2--|
|0--0-0-3-2-1-0-000---000-000---000-000----------3--0--|


/ slide up

\ slide down

. palm mute

~ let palm mute ring

* pinch harmonic: ((the pitch of the pinch harmonic depends on where on the string you 
it))
            
Submit corrections


        Indictment lessons Hard to play? Try these video lessons and learn fast Indictment lessons
        
↑ Back to top | Tablatures and chords for acoustic guitar and electric guitar, ukulele, drums are parodies/interpretations of the original songs. You may use it for private study, scholarship, research or language learning purposes only