» » »

All That Remains - Indictment Tabs

Artists:  A B C D E F G H I J K L M N O P Q R S T U V W X Y Z # 

Indictment Tabs

(ver. 1) Click to play this song!
All That Remains
 Rating:
4/5 (4 votes)

 Indictment lessons Tabs too difficult? Try these video lessons and learn fast
 
                .= palm mute
h= hammer on
p= pull off
*Though out song listen for timing*

 (lead guitar)for 0:29                    (1st chorus)
|----------------------------------------------------
|----------------------------------------------------
|----------------------------------------------------
|----------------------------------------------------
|------5h6p5---7h8p7--5h6p5------5h6p5---4h5p4--3h4p3
|000000-----000-----00-----000000-----000-----00-----
 ......     ...     ..     ......     ...     ..

|---------------------------------------------------------|
|---------------------------------------------------------|
|---------------------------------------------------------|
|-----------------------------------------------1h2p1-----|
|------5h6p5---7h8p7--5h6p5--4h5p4--3h4p3--2h3p2-----1h2p1|
|000000-----000-----00-----00-----00-----00---------------|
 ......     ...     ..     ..     ..     ..

 (rythem guitar)
|---------------------|
|---------------------|
|---------------------|
|---4~------1h2p1-----|
|---3~-2h3p2-----1h2p1|
|00-1~----------------|
 ..
                                                    (2nd chorus)
|-------------------------------------------------------------|
|-------------------------------------------------------------|
|-------------------------------------------------------------| untill
|---------------------------------------------------1h2p1-----|  0:29
|----------------------------------------------2h3p2-----1h2p1|
|00000-00000--00000-00000--00000-00000--000-000---------------|
 ..... .....  ..... .....  ..... .....  ... ...

 (Both guitars)    (3rd chorus)
|-------------------------|
|-------------------------|
|-------------------------| Untill
|-----------------5---5~4~|  0:48
|-----------3b--4b----4~3~|
|0-0-0-0-0-0--00---00-3~2~|
 . . . . . .. ...  .. . .     (4th chorus)
|---------------------------------------|
|---------------------------------------|
|---------------------------------------| untill
|---------------------------------------|  1:08
|----------------------------2h3-3h4-1h2|
|1-0-0-2-0-0-0-1000-1000-1000-----------|
 . . . . . . . .... .... ....

(play 2nd chorus untill 1:27)
(play 4th chorus untill 1:48)

Thats all i have so far. They might not be correct either but its atleast somthing
please rate!!(and or comment)
            
Submit corrections


        Indictment lessons Hard to play? Try these video lessons and learn fast Indictment lessons
        
↑ Back to top | Tablatures and chords for acoustic guitar and electric guitar, ukulele, drums are parodies/interpretations of the original songs. You may use it for private study, scholarship, research or language learning purposes only