» » »

All That Remains - Empty Inside Bass

Artists:  A B C D E F G H I J K L M N O P Q R S T U V W X Y Z # 

Empty Inside Bass

(ver. 3) Click to play this song!
All That Remains
 Rating:
4/5 (4 votes)

 Empty Inside lessons Tabs too difficult? Try these video lessons and learn fast
 
                All That Remains
Empty Inside


/= seperates two digit numbers

Intro
g--------------------------------------| x4
d--------------------------------------|
a-5---5-578----0-873----3-10/87-7-7873-|
d---00------00-------00----------------|


verse
g---------------------------------------------------------------|x2
d---------------------------------------------------------------|
a---5----5-5-----873-8---8-8----10/87-5----5-5----873-----------|
d-----00------00-------00----00---------00-----00-----3-xx-3-xx-|


chorus(Not sure about the strum patern)
g------------------------------------------------|
d------------------------------------------------|
a---55555555778888888/10/8777777----5555---------|
d-------------------------------8888-------------|


g------------------------------------------------|
d-------------------5555555578877----------------|
a-555555557788888878-----------------------------|
d------------------------------------------------|
verse x2
chorusx2

solo
g-------------|x4
d-------------|
a--5---8--10--|
d-------------|


g-------------|x4
d--7---10-12--|
a--5---8--10--|
d-------------|
chorus x2
Intro  x2
verse  x2

End (Not sure about strum pattern)
g-7777777-x14
d-0000000-
a-5555555-
d-0000000-
(Let not ring on last riff)
            
Submit corrections


        Empty Inside lessons Hard to play? Try these video lessons and learn fast Empty Inside lessons
        
↑ Back to top | Tablatures and chords for acoustic guitar and electric guitar, ukulele, drums are parodies/interpretations of the original songs. You may use it for private study, scholarship, research or language learning purposes only