» » »

All That Remains - Empty Inside Bass

Artists:  A B C D E F G H I J K L M N O P Q R S T U V W X Y Z # 

Empty Inside Bass

(ver. 2) Click to play this song!
All That Remains
 Rating:
4/5 (4 votes)

 Empty Inside lessons Tabs too difficult? Try these video lessons and learn fast
 
                -----------------------------------------------------------------------------
			     Empty Inside - All That Remains 
-----------------------------------------------------------------------------


I played this song by ear, and I decided to put up a tab 
(I'm submitting this from school, so all of this is a mental image 
of the fretboard)
(NOT to exact rhythm)

Tuning: Drop D - DADG

Intro
G|------------------------------------------------|
D|------------------------------5-----------------|x4
A|-5---5-5-7-8-----0-8-7-3----3----8-7-7-8-7-3----|
D|--00---------00----------00---------------------|


Verse
G|--------------------------------------------------------------|
D|-----------3-2-----------5-3-2----------3-2-------------------|x2
A|--------------3----------------------------3------------------|
D|-000000000------33333333-------00000000------333-3-333-33-22--|


Chorus (You can also trem pick these notes like the guitar)
G|---------------------------------------------|
D|---------------------------------------------|
A|-----------3~~--1--3-------------------------|
D|-0~~--3~~-------------0~~--3~~--5-5~--8-7~---|
*NOTE: NOT the same notes the guitar(s) play(s)


Verse
G|--------------------------------------------------------------|
D|-----------3-2-----------5-3-2----------3-2-------------------|x2
A|--------------3----------------------------3------------------|
D|-000000000------33333333-------00000000------333-3-333-33-22--|

Chorus 
G|---------------------------------------------|
D|---------------------------------------------|x2
A|-----------3~~--1--3-------------------------|
D|-0~~--3~~-------------0~~--3~~--5-5~--8-7~---|


Breakdown (Before Solo)
G|-------------------------------|
D|-------------------------------|
A|-------3--1-3------------------|
D|-0--3----------0--3--5--8-7----|


Solo
G|------------|  G|-------------| 
D|------------|  D|-------------|
A|-------3~~--|  A|-------------|
D|-0--3-------|  D|-0--3--5~~---|


Verse
G|--------------------------------------------------------------|
D|-----------3-2-----------5-3-2----------3-2-------------------|
A|--------------3----------------------------3------------------|
D|-000000000------33333333-------00000000------333-3-333-33-22--|

Intro (Once More)
G|------------------------------------------------|
D|------------------------------5-----------------|
A|-5---5-5-7-8-----0-8-7-3----3----8-7-7-8-7-3----|
D|--00---------00----------00---------------------|


Verse
G|--------------------------------------------------------------|
D|-----------3-2-----------5-3-2----------3-2-------------------|
A|--------------3----------------------------3------------------|
D|-000000000------33333333-------00000000------333-3-333-33-22--|


Outro (Breakdown) 
G|------------------------------------------------------------|
D|------------------------------------------------------------|
A|------------------------------------------------------------|
D|-00000000000-0--0000000000-0--0000000000-0--0000000000-0----|


You can play either the open "D" or the 12th fret (Same Note)
G|----------|     G|-------| 
D|----------| OR  D|-------|
A|----------|     A|-------|
D|--12\\\---|     D|--0\\\-|
[Slide all the way DOWN the neck]

There you have it. Played it by ear and this sounds right to me.
Please share what you think. Agian, I'm at school (break time) so I'm doing this from memory. 
Any corrections, please let me know. 
NOT tabbed to correct rhythm, please figure out rhythm yourself. 

Enjoy. 

| /  slide up
| \  slide down
| h  hammer-on
| p  pull-off
| ~  vibrato
| +  harmonic
| x  Mute note
=============================================================================
            
Submit corrections


        Empty Inside lessons Hard to play? Try these video lessons and learn fast Empty Inside lessons
        
↑ Back to top | Tablatures and chords for acoustic guitar and electric guitar, ukulele, drums are parodies/interpretations of the original songs. You may use it for private study, scholarship, research or language learning purposes only