» » »

All That Remains - Chiron Tabs

Artists:  A B C D E F G H I J K L M N O P Q R S T U V W X Y Z # 

Chiron Tabs

(ver. 1) Click to play this song!
All That Remains
 Rating:
2.8/5 (10 votes)

 Chiron lessons Tabs too difficult? Try these video lessons and learn fast
 
                (Intro)
-------------------------------------------------------------------------------
                             Chiron - All That Remains
-------------------------------------------------------------------------------

Tuning: D Standard (DGCFAd)

INTRO:(X2)

d|---------------------------------------------------------------------------|
A|----------------------------------------------------12---/16---15----------|
F|-------------------------/15---13p11h13---13---15--------------------------|
C|---/13~---13---15---16-----------------------------------------------------|
G|---------------------------------------------------------------------------|
D|---------------------------------------------------------------------------|

d|---------------------------------------------------------------------------|
A|---------------------------------------------------------------------------|
F|---16---15---13------------------------------------------------------------|
C|------------------16---15--------------------------------------------------|
G|---------------------------------------------------------------------------|
D|---------------------------------------------------------------------------|

-------------------------------------------------------------------------------

So yeah. Theres another tab up from my friend KsE3234.
We were bored one day so we decided to get the intro to this song down.
And sure enough we did haha but the thing is... when he submitted the tab, it was in 
D. Now I went along with it because i didnt know any better... i havent listened to any All 
Remains songs till now...
so I didn't know that they play in D standard (or at least people say they do)
Soooooo heres pretty much the same tab as his but in supposably the correct tuning AND 
seperate strings, making it much easier in most peoples opinions.

We ARE in fact planning on tabbing out the rest of the song eventually. But as of now, 
only have the intro and bits and pieces of the verse.
Til then!


| /  slide up
| \  slide down
| h  hammer-on
| p  pull-off
| ~  vibrato
| +  harmonic
| x  Mute note
            
Submit corrections


        Chiron lessons Hard to play? Try these video lessons and learn fast Chiron lessons
        
↑ Back to top | Tablatures and chords for acoustic guitar and electric guitar, ukulele, drums are parodies/interpretations of the original songs. You may use it for private study, scholarship, research or language learning purposes only