» » »

All That Remains - Chiron Tabs

Artists:  A B C D E F G H I J K L M N O P Q R S T U V W X Y Z # 

Chiron Tabs

(ver. 3) Click to play this song!
All That Remains
 Rating:
3.4/5 (9 votes)

 Chiron lessons Tabs too difficult? Try these video lessons and learn fast
 
                -------------------------------------------------------------------------------
                        Chiron – All that remains
-------------------------------------------------------------------------------

Tuning: Drop d and a half step down
Sorry if I got your hopes up for a full song but its just the intro and the verse, I 
except for a few chords.
I changed part of the beginning of the chorus to make it easier thanks to guitarguru134.
Intro
e|---------------------------------------------------------------------------|
B|-----------------10--/10--8--6--8---8--10--11----14b15r--11--10------------|
G|---7--9--10--9----------------------pm-pm--pm------------------------12--10|
D|---------------------------------------------------------------------------|
A|---------------------------------------------------------------------------|
E|---------------------------------------------------------------------------|

e|---------------------------------------------------------------------------|
B|---------------------------------------------------------------------------|
G|---9----------repeat—     I don’t have the harmony-------------------------|
D|-------12------------------------------------------------------------------|
A|---------------------------------------------------------------------------|
E|---------------------------------------------------------------------------|
Verse
e|---------------------------------------------------------------------------|
B|---------------------------------------------------------------------------|
G|---------------------------------------------------------------------------|
D|---------3---2---------------------------------------------------------7---|
A|----5------------5------------------4-----7---8---7---5----3-2---8---------|
E|------0-0--0-------000-000-000-000----0-0---0---0---0---00-----0---00----0-|

e|---------------------------------------------------------------------------|
B|------------not sure about this--------------------------------------------|
G|---------------------------------------------------------------------------|
D|-5---3-----8--8-7-6-7----------3---2---------------------------------------|
A|-----------6--6-5-4-4----5-----------5-----------------4-----7---8---7---5-|
E|---0---000---pm…………--------0-0---0-----000-000-000-000---0-0---0---0---0---|

e|---------------------------------------------------------------------------|
B|---------------not sure about this-----------------------------------------|
G|---------------------------------------------------------------------------|
D|-----------6-7-8--8--8-7-6-7-----------------------------------------------|
A|------3-2--4-4-4--6--6-5-4-4-----------------------------------------------|
E|---00---------------pm…………-------------------------------------------------|

e|---------------------------------------------------------------------------|
B|-------chorus starts like this im pretty sure------------------------------|
G|---------------------------------------------------------------------------|
D|-----7---7---7--9-7--------------------------------------------------------|
A|-------7---7--------7------------------------------------------------------|
E|---------------------------------------------------------------------------|

So if someone could finish this off, it’s a lot but this is an amazing song.

| /  slide up
| \  slide down
| h  hammer-on
| p  pull-off
| ~  vibrato
| +  harmonic
| x  Mute note
=====================================================
            
Submit corrections


        Chiron lessons Hard to play? Try these video lessons and learn fast Chiron lessons
        
↑ Back to top | Tablatures and chords for acoustic guitar and electric guitar, ukulele, drums are parodies/interpretations of the original songs. You may use it for private study, scholarship, research or language learning purposes only