» » »

Alkaline Trio - Emma Tabs

Artists:  A B C D E F G H I J K L M N O P Q R S T U V W X Y Z # 

Emma Tabs

(ver. 2) Click to play this song!
Alkaline Trio
 Rating:
4/5 (4 votes)

 Emma lessons Tabs too difficult? Try these video lessons and learn fast
 
                Yo yo, kids.  This is a song called “Emma,” off Alkaline
Trio’s new CD, Good Mourning.  Have fun with it, it’s muy
easy.


Intro:
----------------------------|
----------------------------|
----------------------------|
--2~~--7~--9~---------------|
--2~~--7~--9~---------------|
--0~~--5~--7~---------------|(let chords ring out)


Verse:
----------------------------|
----------------------------|
----------------------------|
--2-------7------9----------|
--2(16X)--7(8X)--9(8X)------|
--0-------5------7----------|
pm..........................


Chorus:
--------------------------------------------|(listen for 
--------------------------------------------|strum, ez but 
--66666666--22222222--99999999--------------|affective and 
--66666666--22222222--99999999--99999999----|cool, I’d do it
--44444444--00000000--77777777--99999999----|but I’m lazy,
--------------------------------77777777----|deal with it)


End on:

------|
------|
------|
--2---|
--2---|
--0---|(let ring)


Intro:X2
Verse:X4
Chorus:X2
Intro:X2
Verse:X4
Chorus:X2
Intro:X2(strum, no palm mute)
Chorus:X4
Intro:X4

There ya go, pretty ez, at the end of the chorus, skiba
being the bad ass that he is, holds out the B longer so
listen to the song and then you can put everything together.
            
Submit corrections


        Emma lessons Hard to play? Try these video lessons and learn fast Emma lessons
        
↑ Back to top | Tablatures and chords for acoustic guitar and electric guitar, ukulele, drums are parodies/interpretations of the original songs. You may use it for private study, scholarship, research or language learning purposes only