» » »

Alkaline Trio - Emma Tabs

Artists:  A B C D E F G H I J K L M N O P Q R S T U V W X Y Z # 

Emma Tabs

(ver. 1) Click to play this song!
Alkaline Trio
 Rating:
4/5 (4 votes)

 Emma lessons Tabs too difficult? Try these video lessons and learn fast
 
                                                Alkaline trio - Emma

------------------------------------------
------------------------------------------
------------------------------------------
--2~~~~~~~~7~~~~9~~~~2~~~~~~~~7~~~~9~~~~--
--2~~~~~~~~7~~~~9~~~~2~~~~~~~~7~~~~9~~~~--
--0~~~~~~~~5~~~~7~~~~0~~~~~~~~5~~~~7~~~~--

--9-9-9-9-9-9-9-9-9-9-9-9-9-9-9-9----------------------------------  all of this
--7-7-7-7-7-7-7-7-7-7-7-7-7-7-7-7-7-7-7-7-7-7-7-7-9-9-9-9-9-9-9-9--
----------------------------------5-5-5-5-5-5-5-5-7-7-7-7-7-7-7-7--
   Emma appeared....              Emma fell....   Rain....
   Into my lap....                Lightning....   Name....
   Running dry....                Dont want....   Seem intrusive, but....
   Time has - n't told  me  any - thing...        She....

-----------------------------------9-9-9-9-9-9-9-9------------------  x2
--1111111111111111-7-7-7-7-7-7-7-7-9-9-9-9-9-9-9-9-9-9-9-9-9-9-9-9--
--1111111111111111-7-7-7-7-7-7-7-7-7-7-7-7-7-7-7-7-9-9-9-9-9-9-9-9--
---9-9-9-9-9-9-9-9-5-5-5-5-5-5-5-5-7-7-7-7-7-7-7-7-7-7-7-7-7-7-7-7--
   Ponsettia in....Rain....        True love....   Injury....
   Washed it....   Drain....       One silver....  And....

----------------------------------------------
----------------------------------------------
----------------------------------------------
--999999992~~~~~~~~7~~~~9~~~~2~~~~~~~~7~~~~9--
--999999992~~~~~~~~7~~~~9~~~~2~~~~~~~~7~~~~9--
--777777770~~~~~~~~5~~~~7~~~~0~~~~~~~~5~~~~7--
  Two vi-co-din

--9-9-9-9-9-9-9-9-9-9-9-9-9-9-9-9----------------------------------   all of this
--7-7-7-7-7-7-7-7-7-7-7-7-7-7-7-7-7-7-7-7-7-7-7-7-9-9-9-9-9-9-9-9--
----------------------------------5-5-5-5-5-5-5-5-7-7-7-7-7-7-7-7--

  Emma woke up....                Suitcase....      Packed ....
  Note on the bedstand.....       Sincerely....     Back....
  Nightmare on my street....      Nightmarish....   In which....
  Made her feel at home....       Made me....       Home....

-----------------------------------9-9-9-9-9-9-9-9------------------  x2
--1111111111111111-7-7-7-7-7-7-7-7-9-9-9-9-9-9-9-9-9-9-9-9-9-9-9-9--
--1111111111111111-7-7-7-7-7-7-7-7-7-7-7-7-7-7-7-7-9-9-9-9-9-9-9-9--
---9-9-9-9-9-9-9-9-5-5-5-5-5-5-5-5-7-7-7-7-7-7-7-7-7-7-7-7-7-7-7-7--
   Ponsettia in... Rain....        True love....     Injury....
   Washed it...    Drain....       One wooden....    Heart....

--999999992222222222222222777777779999999922222222222222227777777799999999--
--999999992222222222222222777777779999999922222222222222227777777799999999--
--777777770000000000000000555555557777777700000000000000005555555577777777--
Two vi-co-din

-----------------------------------9-9-9-9-9-9-9-9------------------  x4
--1111111111111111-7-7-7-7-7-7-7-7-9-9-9-9-9-9-9-9-9-9-9-9-9-9-9-9--
--1111111111111111-7-7-7-7-7-7-7-7-7-7-7-7-7-7-7-7-9-9-9-9-9-9-9-9--
---9-9-9-9-9-9-9-9-5-5-5-5-5-5-5-5-7-7-7-7-7-7-7-7-7-7-7-7-7-7-7-7--
   Ponsettia in....Rain....        True love....   Injury....
   Washed it....   Drain....       One silver....  And two vicodin....
   Watched the.... Crown....       City....        World upside down....
   Slow ticket.... Town....        Out with....    Took....

------------------------------------------
------------------------------------------              End on
------------------------------------------ x4            --2--
--------22222222222222227777777799999999--               --2--
--------22222222222222227777777799999999--               --0-- 
--------00000000000000005555555577777777--
                                With you all my dreams
  under-ground                  With you all my dreams
  under-ground                  With you all my dreams
  under-ground                  With you all my dreams
  under-ground

Standard tuning. Use downstrokes for ALL of the song. This is so easy but a
really good song, especially the chorus.
            
Submit corrections


        Emma lessons Hard to play? Try these video lessons and learn fast Emma lessons
        
↑ Back to top | Tablatures and chords for acoustic guitar and electric guitar, ukulele, drums are parodies/interpretations of the original songs. You may use it for private study, scholarship, research or language learning purposes only