» » »

Alkaline Trio - Cringe Tabs

Artists:  A B C D E F G H I J K L M N O P Q R S T U V W X Y Z # 

Cringe Tabs

(ver. 2) Click to play this song!
Alkaline Trio
 Rating:
4/5 (4 votes)

 Cringe lessons Tabs too difficult? Try these video lessons and learn fast
 
                CRINGE - Alkaline Trio 

"Don't get a cr*p tab... 
...get an Anakev tab" 

Intro (x4): 
e|-------------------------------------------------------------------------| 
B|-------------------------------------------------------------------------| 
G|-------------------------------------------------------------------------| 
D|---10-10-10-10-10-10-10-10-----------------------------------------------| 
A|---------------------------10-10-10-10--10-10----------------------------| 
E|---8--8--8--8--8--8--8--8--7--7--7--8---8--8-----------------------------| 

Verse (x2): 
e|-------------------------------------------------------------------------| 
B|-------------------------------------------------------------------------| 
G|-------------------------------------------------------------------------| 
D|---10-10-10-10-10-10-10-10-----------------------------------------------| 
A|---------------------------10-10-10-10-10-10-----------------------------| 
E|---8--8--8--8--8--8--8--8--7--7--7--8--8--8------------------------------| 
(the octaves on 8 are played until the lines below,in which starts the 7+8 chords: 
("in surprise,""five degrees,""from your eyes,""of your scars""shuteye,"and"8 hours") 

After Verses 1 and 3 (x1): 
e|-------------------------------------------------------------------------| 
B|-------------------------------------------------------------------------| 
G|-------------------------------------------------------------------------| 
D|-------7-7-7-7-7-7-7-7--pause--7-7-7-7-7-7-7-7---------------------------| 
A|-------7-7-7-7-7-7-7-7--pause--7-7-7-7-7-7-7-7---------------------------| 
E|-------5-5-5-5-5-5-5-5--pause--5-5-5-5-5-5-5-5---------------------------| 
(the pause begins before "flight" and ends during the "i" sound in "flight"(Verse1) 
(begins after "headwind" and ends a small amount of time before "cold rain"(Verse2) 

Intro (x2) 

Verse (x2) 

After Verse 2 (x1): 
e|-------------------------------------------------------------------------| 
B|-------------------------------------------------------------------------| 
G|-------------------------------------------------------------------------| 
D|-----3-3-3-3-3-3-3-3---3-3-3-3-3-3-3-3----5-5-5-5-5-5-5-5-5--------------| 
A|-----3-3-3-3-3-3-3-3---3-3-3-3-3-3-3-3----5-5-5-5-5-5-5-5-5--------------| 
E|-----1-1-1-1-1-1-1-1---1-1-1-1-1-1-1-1----3-3-3-3-3-3-3-3-3--------------| 
(the pause begins before "sheep" and ends during the "ee" sound in "sheep") 

After After Verse 2 (x2): 
e|-------------------------------------------------------------------------| 
B|-------------------------------------------------------------------------| 
G|-------------------------------------------------------------------------| 
D|------7-------2-------3-------5------------------------------------------| 
A|------7-------2-------3-------5------------------------------------------| 
E|------5-------0-------1-------3------------------------------------------| 

Intro (x4) 

Verse (x2) 

After Verses 1 and 3 (x1) 

Intro (x2) 

After Verses 1 and 3 (x1) 

Bridge: 
e|-------------------------------------------------------------------------| 
B|-------------------------------------------------------------------------| 
G|-------------------------------------------------------------------------| 
D|---9-9-9-9-9-9-9-9--10---------------------------------------------------| 
A|---9-9-9-9-9-9-9-9--10---let-ring--PICKSLIDE-----------------------------| 
E|---7-7-7-7-7-7-7-7--9----------------------------------------------------| 

e|-------------------------------------------------------------------------| 
B|-------------------------------------------------------------------------| 
G|---------5------4--------12----10---9-----7------------------------------| 
D|---5---------------------------------------------------------------------| 
A|---3-----3------2--------10----8----7-----5------------------------------| 
E|-------------------------------------------------------------------------| (x2) 

e|-------------------------------------------------------------------------| 
B|-------------------------------------------------------------------------| 
G|---5-5-5-5-5-5-5-5-5-5-5-5-5-5-5-5-5-5-5-5-------------------------------| 
D|---5-5-5-5-5-5-5-5-5-5-5-5-5-5-5-5-5-5-5-5-------------------------------| 
A|---3-3-3-3-3-3-3-3-3-3-3-3-3-3-3-3-3-3-3-3-------------------------------| 
E|-------------------------------------------------------------------------| (x2) 

e|-------------------------------------------------------------------------| 
B|-------------------------------------------------------------------------| 
G|---5-5-5-5-5-5-5-5-5-5--pause--5-5-5-5-5-5-5-5-5-5--pause----------------| 
D|---5-5-5-5-5-5-5-5-5-5--pause--5-5-5-5-5-5-5-5-5-5--pause----------------| 
A|---3-3-3-3-3-3-3-3-3-3--pause--3-3-3-3-3-3-3-3-3-3--pause----------------| 
E|-------------------------------------------------------------------------| (x2) 
(on 2nd time, don't pause at the end) 

After Verses 1 and 3 (x1) 

e|-------------------------------------------------------------------------| 
B|-------------------------------------------------------------------------| 
G|-------------------------------------------------------------------------| 
D|---9-9-9-9-9-9-9-9--10---------------------------------------------------| 
A|---9-9-9-9-9-9-9-9--10---let-ring----------------------------------------| 
E|---7-7-7-7-7-7-7-7--9----------------------------------------------------| 
"you were the last good thing I ever saw" 
            
Submit corrections


        Cringe lessons Hard to play? Try these video lessons and learn fast Cringe lessons
        
↑ Back to top | Tablatures and chords for acoustic guitar and electric guitar, ukulele, drums are parodies/interpretations of the original songs. You may use it for private study, scholarship, research or language learning purposes only