» » »

Alkaline Trio - Cringe Tabs

Artists:  A B C D E F G H I J K L M N O P Q R S T U V W X Y Z # 

Cringe Tabs

(ver. 1) Click to play this song!
Alkaline Trio
 Rating:
4/5 (4 votes)

 Cringe lessons Tabs too difficult? Try these video lessons and learn fast
 
                PROPS GO TO: Harvester Of Sorrow

Alkaline Trio - Cringe

4x   intro part
--------------------------------------------
--------------------------------------------
--------------------------------------------
--10--10--10-10----10-10-10-10-10-10--------
--10--10--10-10----7-7-/-8--8--8--8---------
--8---8---8--8------------------------------
   
 2x   verse   
-----------------------------------|--------------------------------------
-----------------------------------|--------------------------------------
-----------------------------------|--------------------------------------
---10--10--10--10--10--10--10--10--|--10--10--10-10----10-10-10-10-10-10--
---10--10--10--10--10--10--10--10--|--10--10--10-10----7-7-/-8--8--8--8---
---8---8---8---8---8---8---8---8---|--8---8---8--8------------------------

  
--0--0-0-0--0--0--0--0-------|--0--0-0-0--0--0--0--0-
--1--1-1-1--0--0--1--0-------|--0--0-0-0--3--1--0--1--
--2--2-2-2--2--2--2--2-------|--2--2-2-2--2--2--2--2--
--2--2-2-2--2--2--2--2-------|--2--2-2-2--2--2--2--2--
--0--0-0-0--0--0--0--0-------|--0--0-0-0--0--0--0--0--
-----------------------------|------------------------

--intro part 2x

--verse

--0--0-0-0--0--0--0--0-------|--0--0-0-0--0--0--0--0-
--1--1-1-1--0--0--1--0-------|--0--0-0-0--3--1--0--1--
--2--2-2-2--2--2--2--2-------|--2--2-2-2--2--2--2--2--
--2--2-2-2--2--2--2--2-------|--2--2-2-2--2--2--2--2--
--0--0-0-0--0--0--0--0-------|--0--0-0-0--0--0--0--0--
-----------------------------|------------------------

--------------------------------------------
--------------------------------------------
-2-2-2-2-2-2-2-2-4--------------------------
-3-3-3-3-3-3-3-3-5--------------------------
-3-3-3-3-3-3-3-3-5--------------------------
-1-1-1-1-1-1-1-1-3--------------------------

    2x
-1-1-1-1-1-1-1-1----------------------------------------------------
-2-2-2-2-2-2-2-2-1-1-1-1-1-1-1-1-2-2-2-2-2-2-2-2-4-4-4-4-4-4-4-4----
-2-2-2-2-2-2-2-2-2-2-2-2-2-2-2-2-3-3-3-3-3-3-3-3-5-5-5-5-5-5-5-5----
-0-0-0-0-0-0-0-0-2-2-2-2-2-2-2-2-3-3-3-3-3-3-3-3-5-5-5-5-5-5-5-5----
-----------------0-0-0-0-0-0-0-0-1-1-1-1-1-1-1-1-3-3-3-3-3-3-3-3----

--intro part 2x

--verse


--5-5-5-5-5-5-5-5-5-2-2-2-2-2-2-2-2-12-12-12-12-12-12-12-12-10-10-10-10-9-7-5-4--
--5-5-5-5-5-5-5-5-5-2-2-2-2-2-2-2-2----------------------------------------------
--3-3-3-3-3-3-3-3-3-0-0-0-0-0-0-0-0-10-10-10-10-10-10-10-10-8--8--8--8--7-5-3-2--

  4x
--------------------------------------------
--------------------------------------------
--5-5-5-5-5-5-5-5-5-5-5-5-5-5-5-5-----------
--5-5-5-5-5-5-5-5-5-5-5-5-5-5-5-5-----------
--3-3-3-3-3-3-3-3-3-3-3-3-3-3-3-3-----------
--------------------------------------------

-----------------------------------------
-----------------------------------------
--5-5-5-5-5-5-5-5-5-5-5-5-5--------------
--5-5-5-5-5-5-5-5-5-5-5-5-5--------------
--3-3-3-3-3-3-3-3-3-3-3-3-3--------------
-----------------------------------------


--------------------------------------------
--------------------------------------------
--------------------------------------------
--3-3-3-3-3-3-3-3-5-5-5-5-5-5-5-5-----------
--3-3-3-3-3-3-3-3-5-5-5-5-5-5-5-5-----------
--1-1-1-1-1-1-1-1-3-3-3-3-3-3-3-3-----------

--0--0-0-0--0--0--0--0-------|--0--0-0-0--0--0--0--0-
--1--1-1-1--0--0--1--0-------|--0--0-0-0--3--1--0--1--
--2--2-2-2--2--2--2--2-------|--2--2-2-2--2--2--2--2--
--2--2-2-2--2--2--2--2-------|--2--2-2-2--2--2--2--2--
--0--0-0-0--0--0--0--0-------|--0--0-0-0--0--0--0--0--
-----------------------------|------------------------


--------------------------------------------
--------------------------------------------
-2-2-2-2-2-2-2-2-4-----------------5--------
-3-3-3-3-3-3-3-3-5-----------------5--------
-3-3-3-3-3-3-3-3-5-----------------3--------
-1-1-1-1-1-1-1-1-3--------------------------
            
Submit corrections


        Cringe lessons Hard to play? Try these video lessons and learn fast Cringe lessons
        
↑ Back to top | Tablatures and chords for acoustic guitar and electric guitar, ukulele, drums are parodies/interpretations of the original songs. You may use it for private study, scholarship, research or language learning purposes only