Home » A » Alexisonfire »

Alexisonfire - Mailbox Arson Tabs

Artists:  A B C D E F G H I J K L M N O P Q R S T U V W X Y Z # 

Mailbox Arson Tabs

(ver. 2) Click to play this song!
Alexisonfire
 Rating:
4/5 (4 votes)
                Tuning: dropped half step then drop D.

Intro
|-----------------------------------------------------------------------|
|-----------------------------------------------------------------------|
|--6--------------------------------------------------------------------|
|--6--------------------------------------------------------------------|
|--4--------------------------------------------------------------------|
|-----------------------------------------------------------------------|


Verse

(Guitar 1)
|-----------------------------------------------------------------------|
|-----------------------------------------------------------------------|
|-4/6-66-4--44/9-9-44/6-6-----------------------------------------------|
|-x/x-xx-x--xx/x-x-xx/x-x-----------------------------------------------|
|-2/4-44-2--22/7-7-22/4-4---(x4)----------------------------------------|
|-----------------------------------------------------------------------|

(Guitar 2)
|-----------------------------------------------------------------------|
|-----------------------------------------------------------------------|
|-4/6-66-4--44/9-9-44/6-6--------on third time:--1111111-9-6------------|
|-x/x-xx-x--xx/x-x-xx/x-x------------------------x-x-x-x-x-x------------|
|-2/4-44-2--22/7-7-22/4-4-(x3)-------------------9-9-9-9-7-4------------|
|-----------------------------------------------------------------------|


(Guitar 1)
|-----------------------------------------------------------------------|
|-----------------------------------------------------------------------|
|-4/6-66-4--44/9-9-44/6-6-----------------------------------------------|
|-x/x-xx-x--xx/x-x-xx/x-x-----------------------------------------------|
|-2/4-44-2--22/7-7-22/4-4--(x8)-----------------------------------------|
|-----------------------------------------------------------------------|

(Guitar 2)
|-----------------------------------------------------------------------|
|---------------------------------------(this part may alter slightly)--|
|-11h13p11------------------11h13p11------------------------------------|
|----------13-14p13-11-11-------------13141311--------------------------|
|---------------------------------------------14------------------------|
|-----------------------------------------------------------------------|


Pre Chorus
|-----------------------------------------------------------------------|
|-----------------------------------------------------------------------|
|-6666666666666666-2222222222222222-------------------------------------|
|-6666666666666666-2222222222222222-4444444444444444-33333333-22222222--|
|-4444444444444444-0000000000000000-4444444444444444-33333333-22222222--|
|-----------------------------------4444444444444444-33333333-22222222--|


Chorus

(Guitar 1)
|-----------------------------------------------------------------------|
|-----------------------------------------------------------------------|
|-6666666666666666-2222222222222222-------------------------------------|
|-6666666666666666-2222222222222222-4444444444444444-33333333-22222222--|
|-4444444444444444-0000000000000000-4444444444444444-33333333-22222222--|
|-----------------------------------4444444444444444-33333333-22222222--|

(Guitar 2)
|-----------------------------------------------------------------------|
|-------------/12121212-------------------------------------------------|
|-99999999999-----------(x3)-9999999-8-9-8-9-8-99-----------------------|
|-----------------------------------------------------------------------|
|-----------------------------------------------------------------------|
|-----------------------------------------------------------------------|


Fill
|-----------------------------------------------------------------------|
|-----------------------------------------------------------------------|
|-4/6-66-4--44/9-9-44/6-6-----------------------------------------------|
|-x/x-xx-x--xx/x-x-xx/x-x-----------------------------------------------|
|-2/4-44-2--22/7-7-22/4-4---(x4)----------------------------------------|
|-----------------------------------------------------------------------|


Verse
(Guitar 1)
|-----------------------------------------------------------------------|
|-----------------------------------------------------------------------|
|-4/6-66-4--44/9-9-44/6-6-----------------------------------------------|
|-x/x-xx-x--xx/x-x-xx/x-x-----------------------------------------------|
|-2/4-44-2--22/7-7-22/4-4--(x4)-----------------------------------------|
|-----------------------------------------------------------------------|

(Guitar 2)
|-----------------------------------------------------------------------|
|--------------------------------------(this part may alter slightly)---|
|-11h13p11------------------11h13p11------------------------------------|
|----------13-14p13-11-11-------------13141311--------------------------|
|---------------------------------------------14------------------------|
|-----------------------------------------------------------------------|


Interlude

|-1616----1214--------1616----121412----------16~(after 4 times)--------|
|------14------14----------14--------14-(x4)----------------------------|
|-----------------------------------------------------------------------|
|-----------------------------------------------------------------------|
|-----------------------------------------------------------------------| 
|-----------------------------------------------------------------------|


                       |----------------------|

(Guitar 1)
|-----------------------------------------------------------------------|
|-----------------------------------------------------------------------|
|-9--8-----9--8--------11--9------11--9---------------------------------|
|-------9--------9-----------11---------11--(x3)------------------------|
|-----------------------------------------------------------------------|
|-----------------------------------------------------------------------|

(Guitar 2, starts once guitar 1 has played x2, then plays with g1 x1, then alone x1)
|---12(x32)--9(x32)-----------------------------------------------------|
|-----------------------------------------------------------------------|
|-----------------------------------------------------------------------|
|-----------------------------------------------------------------------|
|-----------------------------------------------------------------------|
|-----------------------------------------------------------------------|

                         |------------------|


|-----------------------------------------------------------------------|
|-----------------------------------------------------------------------|
|-9999-8------------9999-8------------11-111111-9-----------------------|
|--------9-9999999---------9-9999999--------------111111111-9-9h11-9h11-|
|-----------------------------------------------------------------------|
|-----------------------------------------------------------------------|


Pre Chorus
|-----------------------------------------------------------------------|
|-----------------------------------------------------------------------|
|-6666666666666666-2222222222222222-------------------------------------|
|-6666666666666666-2222222222222222-4444444444444444-33333333-22222222--|
|-4444444444444444-0000000000000000-4444444444444444-33333333-22222222--|
|-----------------------------------4444444444444444-33333333-22222222--|


Chorus

(Guitar 1)
|-----------------------------------------------------------------------|
|-----------------------------------------------------------------------|
|-6666666666666666-2222222222222222-------------------------------------|
|-6666666666666666-2222222222222222-4444444444444444-33333333-22222222--|
|-4444444444444444-0000000000000000-4444444444444444-33333333-22222222--|
|-----------------------------------4444444444444444-33333333-22222222--|

(Guitar 2)
|-----------------------------------------------------------------------|
|-------------/12121212-------------------------------------------------|
|-99999999999-----------(x3)-9999999-8-9-8-9-8-99-----------------------|
|-----------------------------------------------------------------------|
|-----------------------------------------------------------------------|
|-----------------------------------------------------------------------|

Outro

|-----------------------------------------------------------------------|
|-----------------------------------------------------------------------|
|--6-6-6-6-6~-----------------------------------------------------------|
|--6-6-6-6-6~-----------------------------------------------------------|
|--4-4-4-4-4~-----------------------------------------------------------|
|-----------------------------------------------------------------------|
            
Submit corrections

↑ Back to top | Tablatures and chords for acoustic guitar and electric guitar, ukulele, drums are parodies/interpretations of the original songs. You may use it for private study, scholarship, research or language learning purposes only