» » »

Alexisonfire - Mailbox Arson Tabs

Artists:  A B C D E F G H I J K L M N O P Q R S T U V W X Y Z # 

Mailbox Arson Tabs

(ver. 1) Click to play this song!
Alexisonfire
 Rating:
4/5 (4 votes)

 Mailbox Arson lessons Tabs too difficult? Try these video lessons and learn fast
 
                flat tuning, 100% correct

Guitar 1/////////////////////////////////

Verse 1 (00:00 – 00:13)

Eb|-4*---|
Bb|-4*---|
Gb|-4*---|
Db|-4*---|
Ab|-4*---|
Eb|-4*---|

Eb|--------------------|
Bb|--------------------|
Gb|-6666666666666666---| x4
Db|-6666666666666666---|
Ab|-4444444444444444---|
Eb|-4444444444444444---|

Eb|-/---|
Bb|-/---|
Gb|-/---|
Db|-/---|
Ab|-/---|
Eb|-/---|

Verse 2 (00:13 – 00:45)

Eb|-------------------------|
Bb|-------------------------|
Gb|-44/66-4-4/9999\6\44/6---| x3
Db|-xx/xx-x-x/xxxx\x\xx/x---|
Ab|-22/44-2-2/7777\4\22/4---|
Eb|-------------------------|

Eb|-----------------|
Bb|-----------------|
Gb|-11111111-4/66---| 
Db|-x-x-x-x--x/xx---|
Ab|-9-9-9-9--2/44---|
Eb|-----------------|

Eb|-4------------------4-------------|
Bb|---5-4-7-5-4---4~~~---5-4-7-5-4---|
Gb|-------------4------------------4-| x3
Db|----------------------------------|
Ab|----------------------------------|
Eb|----------------------------------|

Eb|-4--------------------|
Bb|---5-4-7-5-4---4~~~---|
Gb|-------------4--------|
Db|----------------------|
Ab|----------------------|
Eb|----------------------|

Eb|-4------------------4-------------|
Bb|---5-4-7-5-4---4~~~---5-4-7-5-4---|
Gb|-------------4------------------4-| x3
Db|----------------------------------|
Ab|----------------------------------|
Eb|----------------------------------|

Eb|-4--------------------|
Bb|---5-4-7-5-4---4~~~---|
Gb|-------------4--------|
Db|----------------------|
Ab|----------------------|
Eb|----------------------|

Pre-Chorus (00:45 – 00:55)

Eb|-------------------------------------|
Bb|-------------------------------------|
Gb|-6666666666666666--------------------|
Db|-6666666666666666-7777777777777777---|
Ab|-4444444444444444-7777777777777777---|
Eb|-4444444444444444-5555555555555555---|

Eb|-------------------------------------|
Bb|-------------------------------------|
Gb|-------------------------------------|
Db|-4444444444444444-3333333322222222---|
Ab|-4444444444444444-3333333322222222---|
Eb|-2222222222222222-1111111100000000---|

Chorus (00:55 – 01:17)

Eb|-------------------------------------|
Bb|-------------------------------------|
Gb|-6666666666666666--------------------|
Db|-6666666666666666-7777777777777777---|
Ab|-4444444444444444-7777777777777777---|
Eb|-4444444444444444-5555555555555555---|

Eb|-------------------------------------|
Bb|-------------------------------------|
Gb|-------------------------------------|
Db|-4444444444444444-3333333322222222---|
Ab|-4444444444444444-3333333322222222---|
Eb|-2222222222222222-1111111100000000---|

Eb|-------------------------------------|
Bb|-------------------------------------|
Gb|-6666666666666666--------------------|
Db|-6666666666666666-7777777777777777---|
Ab|-4444444444444444-7777777777777777---|
Eb|-4444444444444444-5555555555555555---|

Eb|-------------------------------------|
Bb|-------------------------------------|
Gb|-------------------------------------|
Db|-4444444444444444-3333333322222222---|
Ab|-4444444444444444-3333333322222222---|
Eb|-2222222222222222-1111111100000000---|

Interlude (01:17 – 01:27)

Eb|-----|
Bb|-----|
Gb|-4---|
Db|-x---|
Ab|-2---|
Eb|-----|

Verse 3 (01:27 – 01:40)

Eb|-4------------------4-------------|
Bb|---5-4-7-5-4---4~~~---5-4-7-5-4---|
Gb|-------------4------------------4-| x3
Db|----------------------------------|
Ab|----------------------------------|
Eb|----------------------------------|

Eb|-4--------------------|
Bb|---5-4-7-5-4---4~~~---|
Gb|-------------4--------|
Db|----------------------|
Ab|----------------------|
Eb|----------------------|

Eb|-16------------------------|
Bb|----16-17-16-17-19-17p16---|
Gb|---------------------------| x7
Db|---------------------------|
Ab|---------------------------|
Eb|---------------------------|

Eb|-16b---|
Bb|-------|
Gb|-------|
Db|-------|
Ab|-------|
Eb|-------|

Bridge (01:40 – 02:42)

Eb|-------------------------------|
Bb|-------------------------------|
Gb|-9-8---9-8---11-9----11-9------|x3
Db|-----9-----9------11------11---|
Ab|-------------------------------|
Eb|-------------------------------|

Eb|---------------------------------------------------------------------------------------|
Bb|---------------------------------------------------------------------------------------|
Gb|-99999988--------99999988---11111111111199--------------11111111111199-----------------|
Db|---------99999999--------99999999---------11111111111111--------------11111111111111---|
Ab|---------------------------------------------------------------------------------------|
Eb|---------------------------------------------------------------------------------------|

Eb|---------------------------------------|
Bb|---------------------------------------|
Gb|---------------------------------------| x2
Db|-14-14-14-14-14-14-11-11-11-11-11-11---|
Ab|---------------------------------------|
Eb|---------------------------------------|

Eb|---------------------------------------|
Bb|---------------------------------------|
Gb|---------------------------------------|
Db|-16-16-16-16-16-16-11-11-11-11-11-11---|
Ab|---------------------------------------|
Eb|---------------------------------------|

Eb|---------------------------------------|
Bb|---------------------------------------|
Gb|---------------------------------------|
Db|-11-11-11-11-11-11-11-11-11-11-11-11---|
Ab|---------------------------------------|
Eb|---------------------------------------|

Pre-Chorus (02:42 – 02:53)

Eb|-------------------------------------|
Bb|-------------------------------------|
Gb|-6666666666666666--------------------|
Db|-6666666666666666-7777777777777777---|
Ab|-4444444444444444-7777777777777777---|
Eb|-4444444444444444-5555555555555555---|

Eb|-------------------------------------|
Bb|-------------------------------------|
Gb|-------------------------------------|
Db|-4444444444444444-3333333322222222---|
Ab|-4444444444444444-3333333322222222---|
Eb|-2222222222222222-1111111100000000---|

Chorus 2 (02:53 – 03:32)

Eb|-------------------------------------|
Bb|-------------------------------------|
Gb|-6666666666666666--------------------|
Db|-6666666666666666-7777777777777777---|
Ab|-4444444444444444-7777777777777777---|
Eb|-4444444444444444-5555555555555555---|

Eb|-------------------------------------|
Bb|-------------------------------------|
Gb|-------------------------------------|
Db|-4444444444444444-3333333322222222---|
Ab|-4444444444444444-3333333322222222---|
Eb|-2222222222222222-1111111100000000---|

Eb|-------------------------------------|
Bb|-------------------------------------|
Gb|-6666666666666666--------------------|
Db|-6666666666666666-7777777777777777---|
Ab|-4444444444444444-7777777777777777---|
Eb|-4444444444444444-5555555555555555---|

Eb|-------------------------------------|
Bb|-------------------------------------|
Gb|-------------------------------------|
Db|-4444444444444444-3333333322222222---|
Ab|-4444444444444444-3333333322222222---|
Eb|-2222222222222222-1111111100000000---|

Eb|-------------|
Bb|-------------|
Gb|-6-6-6-6-6---|
Db|-6-6-6-6-6---|
Ab|-4-4-4-4-4---|
Eb|-4-4-4-4-4---|

Eb|----------|
Bb|-/4--/5---|
Gb|-/7--/8---|
Db|----------|
Ab|----------|
Eb|----------|

Guitar 2//////////////////////////


Verse 1 (00:00 – 00:13)

Eb|-4*---|
Bb|-4*---|
Gb|-4*---|
Db|-4*---|
Ab|-4*---|
Eb|-4*---|

Eb|--------------------|
Bb|--------------------|
Gb|-6666666666666666---| x4
Db|-6666666666666666---|
Ab|-4444444444444444---|
Eb|-4444444444444444---|

Eb|-/---|
Bb|-/---|
Gb|-/---|
Db|-/---|
Ab|-/---|
Eb|-/---|

Verse 2 (00:13 – 00:45)

Eb|-------------------------|
Bb|-------------------------|
Gb|-44/66-4-4/9999\6\44/6---| x4
Db|-xx/xx-x-x/xxxx\x\xx/x---|
Ab|-22/44-2-2/7777\4\22/4---|
Eb|-------------------------|

Eb|-------------------------|
Bb|-------------------------|
Gb|-44/66-4-4/9999\6\44/6---| x7
Db|-xx/xx-x-x/xxxx\x\xx/x---|
Ab|-22/44-2-2/7777\4\22/4---|
Eb|-------------------------|
.........Palm mute

Eb|-------------|
Bb|-------------|
Gb|-44/66-4-4---|
Db|-xx/xx-x-x---|
Ab|-22/44-2-2---|
Eb|-------------|
.........Palm mute 

Pre-Chorus (00:45 – 00:55)

Eb|-------------------------------------|
Bb|-------------------------------------|
Gb|-6666666666666666--------------------|
Db|-6666666666666666-7777777777777777---|
Ab|-4444444444444444-7777777777777777---|
Eb|-4444444444444444-5555555555555555---|

Eb|-------------------------------|
Bb|-------------------------------|
Gb|--------------------------9b---|
Db|-4444444444444444-33333333x----|
Ab|-4444444444444444-333333337----|
Eb|-2222222222222222-11111111-----|

Chorus (00:55 – 01:17)

Eb|-------------------------|
Bb|-------------------------|
Gb|-9999-99-4444/16161616---| x2 
Db|-xxxx-xx-xxxx/x-x-x-x----|
Ab|-7777-77-2222/14141414---|
Eb|-------------------------|

Eb|------------------------------------|
Bb|------------------------------------|
Gb|-11111111111111111111111111111111---| 
Db|-x-x-x-x-x-x-x-x-x-x-x-x-x-x-x-x----|
Ab|-9-9-9-9-9-9-9-9-9-9-9-9-9-9-9-9----|
Eb|------------------------------------|

Eb|------------------------------------|
Bb|------------------------------------|
Gb|-10101010101010101010101010101010---| 
Db|-x-x-x-x-x-x-x-x-x-x-x-x-x-x-x-x----|
Ab|-8-8-8-8-8-8-8-8-8-8-8-8-8-8-8-8----|
Eb|------------------------------------|

Interlude (01:17 – 01:27)

Eb|-------------------------|
Bb|-------------------------|
Gb|-44/66-4-4/9999\6\44/6---| x4
Db|-xx/xx-x-x/xxxx\x\xx/x---|
Ab|-22/44-2-2/7777\4\22/4---|
Eb|-------------------------|

Verse 3 (01:27 – 01:40)

Eb|-------------------------|
Bb|-------------------------|
Gb|-44/66-4-4/9999\6\44/6---| x7
Db|-xx/xx-x-x/xxxx\x\xx/x---|
Ab|-22/44-2-2/7777\4\22/4---|
Eb|-------------------------|

Eb|-------------|
Bb|-------------|
Gb|-44/66-4-4---|
Db|-xx/xx-x-x---|
Ab|-22/44-2-2---|
Eb|-------------|

Bridge (01:40 – 02:42)

Eb|----------|
Bb|-/4--/5---|
Gb|-/7--/8---| x2 
Db|----------|
Ab|----------|
Eb|----------|

Eb|-------------------------------------------|
Bb|-------------------------------------------|
Gb|-/18181818181818181818181818181818---------| x2 
Db|-/x-x-x-x-x-x-x-x-x-x-x-x-x-x-x-x----------|
Ab|-/16161616161616161616161616161616---------|
Eb|-------------------------------------------|

Eb|-------------------------------------------|
Bb|-------------------------------------------|
Gb|-/16161616161616161616161616161616---------| x2 
Db|-/x-x-x-x-x-x-x-x-x-x-x-x-x-x-x-x----------|
Ab|-/14141414141414141414141414141414---------|
Eb|-------------------------------------------|

Eb|-------------------------------------------|
Bb|-------------------------------------------|
Gb|-/18181818181818181818181818181818---------| x2 
Db|-/x-x-x-x-x-x-x-x-x-x-x-x-x-x-x-x----------|
Ab|-/16161616161616161616161616161616---------|
Eb|-------------------------------------------|

Eb|-------------------------------------------|
Bb|-------------------------------------------|
Gb|-/16161616161616161616161616161616---------| x2 
Db|-/x-x-x-x-x-x-x-x-x-x-x-x-x-x-x-x----------|
Ab|-/14141414141414141414141414141414---------|
Eb|-------------------------------------------|

Eb|-----------------------------------------|
Bb|-----------------------------------------|
Gb|-----------------------------------------| x2
Db|-14-14-14-14-14-14-11--11-13-11--11-13---|
Ab|-----------------------------------------|
Eb|-----------------------------------------|

Eb|-------------------------------------|
Bb|-------------------------------------|
Gb|-------------------------------------| x2
Db|-11-11-11-11-11-11-9--9-11-9--9-11---|
Ab|-------------------------------------|
Eb|-------------------------------------|

Pre-Chorus (02:42 – 02:53)

Eb|-------------------------------------|
Bb|-------------------------------------|
Gb|-6666666666666666--------------------|
Db|-6666666666666666-7777777777777777---|
Ab|-4444444444444444-7777777777777777---|
Eb|-4444444444444444-5555555555555555---|

Eb|-------------------------------|
Bb|-------------------------------|
Gb|--------------------------9b---|
Db|-4444444444444444-33333333x----|
Ab|-4444444444444444-333333337----|
Eb|-2222222222222222-11111111-----|

Chorus 2 (02:53 – 03:32)

Eb|------------------------------------|
Bb|------------------------------------|
Gb|-11111111111111111111111111111111---| 
Db|-x-x-x-x-x-x-x-x-x-x-x-x-x-x-x-x----|
Ab|-9-9-9-9-9-9-9-9-9-9-9-9-9-9-9-9----|
Eb|------------------------------------|

Eb|------------------------------------|
Bb|------------------------------------|
Gb|-10101010101010101010101010101010---| 
Db|-x-x-x-x-x-x-x-x-x-x-x-x-x-x-x-x----|
Ab|-8-8-8-8-8-8-8-8-8-8-8-8-8-8-8-8----|
Eb|------------------------------------|

Eb|-------------|
Bb|-------------|
Gb|-6-6-6-6-6---|
Db|-6-6-6-6-6---|
Ab|-4-4-4-4-4---|
Eb|-4-4-4-4-4---|

Eb|----------|
Bb|-/4--/5---|
Gb|-/7--/8---|
Db|----------|
Ab|----------|
Eb|----------|
            
Submit corrections


        Mailbox Arson lessons Hard to play? Try these video lessons and learn fast Mailbox Arson lessons
        
↑ Back to top | Tablatures and chords for acoustic guitar and electric guitar, ukulele, drums are parodies/interpretations of the original songs. You may use it for private study, scholarship, research or language learning purposes only