Home » A » Alexander Rybak »

Alexander Rybak - Fairytale Bass

Artists:  A B C D E F G H I J K L M N O P Q R S T U V W X Y Z # 

Fairytale Bass

(ver. 2) Click to play this song!
Alexander Rybak
This is my first tab so there's probably some mistakes.


Intro
G:------------2---2---4---------------:
D:----------3---3---5---2-5-----------:
A:--0-3-0-3-----------------0-3-------: x2
E:------------------------------------:

Vers 1
G:--------------------2---2-----------:
D:----------0-3-0-3-3---3---2-5-2-5---:
A:--0-3-0-3---------------------------: x2
E:------------------------------------:

Chorus
G:--------------------2---2-----------:
D:----------0-3-0-3-3---3---2-5-2-5---:
A:--0-3-0-3---------------------------: x2
E:------------------------------------:

Intro x2

Vers 1 x2

Vers 2
G:--------------------4---4---1---1---:
D:----------0-3-0-3-5---5---2---2-----:
A:--0-3-0-3---------------------------:
E:------------------------------------:

G:--------------------2---2-----------:
D:----------0-3-0-3-3---3---2-5-2-5---:
A:--0-3-0-3---------------------------:
E:------------------------------------:

Chorus x2

Intro x2

Chorus x2

Intro x1
            
Submit corrections

↑ Back to top | Tablatures and chords for acoustic guitar and electric guitar, ukulele, drums are parodies/interpretations of the original songs. You may use it for private study, scholarship, research or language learning purposes only