Home » A » Alexander Rybak »

Alexander Rybak - Fairytale Bass

Artists:  A B C D E F G H I J K L M N O P Q R S T U V W X Y Z # 

Fairytale Bass

(ver. 1) Click to play this song!
Alexander Rybak
intro g---------------------------------------0-00-0-00-0-00-0-00------------|
x2    d--------------------3-33-3-33-3-33-3-33--------------------3-3-2------|
      a-0-00-0-00-0-00-0-00---------------------------------------------0----|
      e----------------------------------------------------------------------|

verse1g----------------------------------------------------------------------|
x2    d-----------0-0-00-0--3-3-33-3--2-2-22-2-------------------------------|
      a-0-0-00-0-------------------------------------------------------------|
      e----------------------------------------------------------------------|

chorusg----------------------------------------------------------------------|
x2    d---------000000003333333322222222-------------------------------------|
      a-00000000-------------------------------------------------------------|
      e----------------------------------------------------------------------|

solo  g---------------------------------------0-00-0-00-0-00-0-00------------|
x2    d--------------------3-33-3-33-3-33-3-33--------------------3-3-2------|
      a-0-00-0-00-0-00-0-00---------------------------------------------0----|
      e----------------------------------------------------------------------|

verse2g----------------------------------------------------------------------|
x2    d-----------0-0-00-0--3-3-33-3--2-2-22-2-------------------------------|
      a-0-0-00-0-------------------------------------------------------------|
      e----------------------------------------------------------------------|

g---------------------0-0-00-0------------------------------------------------|
d-----------0-0-00-0------------2-2-22-2-----------0-0-00-0-3-3-33-3-2-2-22-2-|
a-0-0-00-0--------------------------------0-0-00-0----------------------------|
e-----------------------------------------------------------------------------|

chorusg----------------------------------------------------------------------|
x2    d---------000000003333333322222222-------------------------------------|
      a-00000000-------------------------------------------------------------|
      e----------------------------------------------------------------------|

solo  g---------------------------------------0-00-0-00-0-00-0-00-------------|
x2    d--------------------3-33-3-33-3-33-3-33--------------------3-3-2-------|
      a-0-00-0-00-0-00-0-00---------------------------------------------0-----|
      e-----------------------------------------------------------------------|

bridgeg-----------------------------------------------------------------------|
x2    d---------------0-0-00-0--3-3-33-3--2-2-22-2----------------------------|
      a---->0-0-00-0----------------------------------------------------------|
      e-----------------------------------------------------------------------|

outro g---------------------------------------0-00-0-00-0-00-0-00------------|
x1    d--------------------3-33-3-33-3-33-3-33--------------------3-3-2------|
      a-0-00-0-00-0-00-0-00---------------------------------------------0----|
      e----------------------------------------------------------------------|

note that this is my personal way to play it. If you don't like it, tab it your own way.

one - = 1/4
->=hold this long
after verse 2 there is an unnamed bridge, there was no room to write about it. just play.
            
Submit corrections

↑ Back to top | Tablatures and chords for acoustic guitar and electric guitar, ukulele, drums are parodies/interpretations of the original songs. You may use it for private study, scholarship, research or language learning purposes only