Home » A » Alexander Rybak »

Alexander Rybak - Fairytale Tabs

Artists:  A B C D E F G H I J K L M N O P Q R S T U V W X Y Z # 

Fairytale Tabs

(ver. 2) Click to play this song!
Alexander Rybak
Alexander Rybak - Fairytale

Guitar version by me :

Intro :

E-13-13-12-15--12-13-13-12-13-15-13-12-10>12-10>12-13-12---12--------|
B--------------------------------------------------------15--15-13---|
G--------------------------------------------------------------------|
D--------------------------------------------------------------------|
A--------------------------------------------------------------------|
E--------------------------------------------------------------------|

E--------------------------------------------------------------------|
B-13>15-13>15--------------------------------------------------------|
G--------------15-14-12----------------------------------------------|
D-----------------------15-14-12-------------------------------------|
A--------------------------------------------------------------------|
E--------------------------------------------------------------------|


Chords for intro : Dm - Bb - A - A


Verse 2x :

E--------------------------------------------------------------------|
B--------------------------------------------------------------------|
G-10-9-10--9-------12-10--9-10-9-10--10-10-12-9----------------------|
D------------12-10---------------------------------------------------|
A--------------------------------------------------------------------|
E--------------------------------------------------------------------|


Chords for verse :

Dm                    Bb
Years ago, when I was younger
  Bb                    A
I kinda liked a girl I knew
Dm                       Bb
She was mine and we were sweethearts
Bb                            A
That was then but then it's true


Ref 2x :

E--------------------------------------------------------------------|
B--------------------------------------------------------------------|
G-10-9-12--10-9-10-9-12-10--10-9-10--10-10-12-9----------------------|
D--------------------------------------------------------------------|
A--------------------------------------------------------------------|
E--------------------------------------------------------------------|


Chords for ref :

Dm                 Bb         Bb              A
I'm in love with a fairytale, even though it hurts
       Dm                Bb
'Cause I don't care if I lose my mind
Bb           A
I'm already cursed
            
Submit corrections

↑ Back to top | Tablatures and chords for acoustic guitar and electric guitar, ukulele, drums are parodies/interpretations of the original songs. You may use it for private study, scholarship, research or language learning purposes only