» » »

Alan Jackson - Mercury Blues (2nd Tabs

Artists:  A B C D E F G H I J K L M N O P Q R S T U V W X Y Z # 

Mercury Blues (2nd Tabs

(ver. 1) Click to play this song!
Alan Jackson
 Rating:
4/5 (4 votes)

 Mercury Blues (2nd lessons Tabs too difficult? Try these video lessons and learn fast
 
                (Solo)
Alan Jackson  -  Mercury Blues (2nd solo)



**************************************************************************


E------14--12-----------10-----------------------------------
B--13bh--13--13r-12--------------10--------------------------
G-------------------12bh--12r-12-10b-------------------------
D-----------------------------------12-10--10-------------0--
A----------------------------------------12--12\10-8-10-8b---
D------------------------------------------------------------


E-------------1-----------------------------------------------0--------
B---------0----3----5--5-5---5-5----1-1-0------------------2h3-2-------
G------0-2-0h4--2b--4b-4-4pb-4-4pbr-2-1-0---------------3h4-----4pbr-2-
D-----3-3--------------------------------3/4-0-------0h4---------------
A--3h4------------------------------------------1/2-4------------------
D----------------------------------------------------------------------


E-----3-1--------------------------------------------7-7-------------------
B----0---3-------------------------------------------8-8p6--5-3------------
G--2b-----2br-0-------------------------------------------7-5-3b--------0--
D--------------0-3/5------------------------------7/9-x---------5p3p0------
A---------------------1/2-2-1/2-2-1/2--------------------------------1/2---
D------------------------------------6/7-7-6/7-7-7-------------------------


E-------7-----------------------------------
B------7-7-5-7-5-----/6-5-3-1-1-0-----------
G--x-9b----6-7-5h6---/7-5-4-2-1-0-----------
D-----------------7-0--0-0-------3b-0-------
A-------------------------------------------
D------------------------------------3b-0---
            
Submit corrections


        Mercury Blues (2nd lessons Hard to play? Try these video lessons and learn fast Mercury Blues (2nd lessons
        
↑ Back to top | Tablatures and chords for acoustic guitar and electric guitar, ukulele, drums are parodies/interpretations of the original songs. You may use it for private study, scholarship, research or language learning purposes only