» » »

Alan Jackson - Mercury Blues Tabs

Artists:  A B C D E F G H I J K L M N O P Q R S T U V W X Y Z # 

Mercury Blues Tabs

(ver. 1) Click to play this song!
Alan Jackson
 Rating:
4/5 (4 votes)

 Mercury Blues lessons Tabs too difficult? Try these video lessons and learn fast
 
                Alan Jackson: Mercury Blues
*****************************************************************
h = hammer
p = pull-off
v = vibrato
/ = slide
*****************************************************************

intro: dobro
E-----------------------------------------------------------
B-----------------------------------------------------------
G-----------------------9--9---9/11-11----------------------
D-----0h3-5----0----5---10-10—10/12-12------0h3-5-0---0-----
A-0h3-------/5---/5-------0--0-----------0h3--------/5------
E------------------------------------------------------3p2-0

E-----------------------------------------------------------
B-----------------------------------------------------------
G-9---9/11--------------------------------------------------
D-10—10/12--------------------------------------------------
A---0-------------------------------------------------------
E-----------------------------------------------------------

Solo: dobro
E-----------------------------------------------------------
B---------------------------------------------/3-/3v--------
G------------------------------5\4-2----------/4-/4v--------
D-----0-0/3-0-----0-0----0h3-5-------4-3\2-0----------------
A—-0h3---------0h3----0h3-----------------------------------
E-0-----------0---------------------------------------------

E------------------------------------------/7-5---7-5-------
B-/3-1-----------------------------------------7------------
G------2-------------------9---9/11v--x---------------------
D--------4\2-0----0-0h3-4-10—-10/12v--x---------------------
A--------------0h2-----------0------------------------------
E-----------------------------------------------------------

E-----5---5/7--/3-------------------------------------------
B-3/5---5------/3--3----------------------------------------
G-------------------2--9-----9--------11--------------------
D--------------------------10---10/12-12--------------------
A------------------------10-----10/12-----------------------
E----------------------------------------------------------
            
Submit corrections


        Mercury Blues lessons Hard to play? Try these video lessons and learn fast Mercury Blues lessons
        
↑ Back to top | Tablatures and chords for acoustic guitar and electric guitar, ukulele, drums are parodies/interpretations of the original songs. You may use it for private study, scholarship, research or language learning purposes only