» » »

Alan Jackson - Mercury Blues (1st Tabs

Artists:  A B C D E F G H I J K L M N O P Q R S T U V W X Y Z # 

Mercury Blues (1st Tabs

(ver. 1) Click to play this song!
Alan Jackson
 Rating:
4/5 (4 votes)

 Mercury Blues (1st lessons Tabs too difficult? Try these video lessons and learn fast
 
                (Solo)
Alan Jackson  -  Mercury Blues (1st solo)



**************************************************************************


E-----------------------------------------------------------------
B--------------------------------------------1-1-0----------------
G--------------------------------------------2-1-0----------------
D--0---0-3p2p0--0-------0---0-3p2p0-0---0-3/4-0---3b-0---0-----0--
A---0h3-------3b--0h3b---0h3---------0-3--------------3-0-0-3/5---
E-----------------------------------------------------------------


E--------------7---7---5-----------------------------------0---------
B---------0-6bh-6rb-6r-5b-3-----------------------------2h3-2--------
G------0-2-----------------x-5-----------------------3h4-----4pbr-2--
D-----3-3---------------------6\5-3-5-3b----------0h4----------------
A--3h4----------------------------------5-5--1/2-4-------------------
E--------------------------------------------------------------------


E--------8----------------------------
B--2/7-x-8b----8---8-----8---8-8--7---
G----------7-x-9bh-9r-p7-9bh-9-9r-7---
D-----------------------9-------------
A-------------------------------------
E-------------------------------------

            
Submit corrections


        Mercury Blues (1st lessons Hard to play? Try these video lessons and learn fast Mercury Blues (1st lessons
        
↑ Back to top | Tablatures and chords for acoustic guitar and electric guitar, ukulele, drums are parodies/interpretations of the original songs. You may use it for private study, scholarship, research or language learning purposes only