» » »

Airbourne - Stand Up For Rock 'n' Roll Tabs

Artists:  A B C D E F G H I J K L M N O P Q R S T U V W X Y Z # 

Stand Up For Rock 'n' Roll Tabs

(ver. 2) Click to play this song!
Airbourne
 Rating:
4/5 (4 votes)

 Stand Up For Rock 'n' Roll lessons Tabs too difficult? Try these video lessons and learn fast
 
                guitar solo 100% correct
2:42)
E---------------------------------------------------------|
B---------------------------------------------------------|
G------------------------2--2-2---------------------------|
D--4----4-4--4-4-4-2------------2--2-2-4------------------|
A---------------------4-----------------------------------|
E---------------------------------------------------------|

E---------------------------------------------------------|
B---------------------------------------------------------|
G-------------------2--2-2-----------------------------2--|
D--4--4--4-4-4-2-----------2--2-2-4----4--4-4-4-4-2-------|
A-----------------4---------------------------------4-----|
E---------------------------------------------------------|

E-----------------------------------------------14--------------------------|
B---------------------------------------------14---17-----------------------|
G--2-2---------------------------------16-(16)----------------7-9-9-7-9-7---|
D------2--2-2-16--16-16-16-16-16-14-------------------7-9—(9)---------------|
A-----------------------------------16--------------------------------------|
E---------------------------------------------------------------------------|

E-------------------------------------7------7---10--10-7----7--------------|
B---------------7--7---7-7---7-9---10---7-10---7----------10----10-7--------|
G--9-7----------7--7---7-7---7-9-7-----------------------------------9------|
D------9-9--7-9------9-----9------------------------------------------------|
A---------------------------------------------------------------------------|
E---------------------------------------------------------------------------|

E----7----------------------------------------------------------------------|
B------10-7----------------------7-7---------x-x--15--15----------17--------|
G--9--------9--7-----9-7---7-----7-7-------7-------------16-14-16-----------|
D----------------9-7-----9---7-9-----9-7-9----------------------------------|
A---------------------------------------------------------------------------|
E---------------------------------------------------------------------------|

E---------------14----14----------14----17--17-17-----|
B--17--------------------------------14---------------|
G-----16-14-16-----------16-14-16---------------------|
D-----------------------------------------------------|
A-----------------------------------------------------|
E-----------------------------------------------------|
            
Submit corrections


        Stand Up For Rock 'n' Roll lessons Hard to play? Try these video lessons and learn fast Stand Up For Rock 'n' Roll lessons
        
↑ Back to top | Tablatures and chords for acoustic guitar and electric guitar, ukulele, drums are parodies/interpretations of the original songs. You may use it for private study, scholarship, research or language learning purposes only