» » »

Airbourne - Runnin' Wild Tabs

Artists:  A B C D E F G H I J K L M N O P Q R S T U V W X Y Z # 

Runnin' Wild Tabs

(ver. 1) Click to play this song!
Airbourne
 Rating:
4/5 (4 votes)

 Runnin' Wild lessons Tabs too difficult? Try these video lessons and learn fast
 
                Tuning: Standard w/ capo at 1st fret (easier to play this way)

This is tabbed as if the guitar were tuned up 1/2 step (as it sounds w/ capo)

p=pull off
v=vibrato
b=bend
h=hammer on
PM=palm mute
PH=pinch harmonic

Intro

PM/////////////////
|-----------------|
|-----------------|
|-----------------| x8
|-----------------|
|-----------------|
|-0-0-0-0-0-0-0-0-|

        p     p      (play through, ignore gap [for now])   
|------------------- * ----------|
|-3-----------------   ----------|
|-2---2-0---2-0-----   ----------|
|-0---2-0-2-2-0-2-2-   --2-0-2-2-| x4
|-----0---2-0---2-2-   --2-0-2-2-|
|---------0-----0-0-   --0---0-0-|

Verse

    PM    p         p
|---------------------|
|---------------------|
|-------2-0-------2-0-|
|-2-2-2-2-0-2-2-2-2-0-| x4
|-2-2-2-0---2-2-2-0---|
|-0-0-0-----0-0-0-----|

Pre-chorus

          PM    p   PM    p
|---------------------------------------------|
|-3-------------------------3-----------------|
|-2--2--------2-0-------2-0-2--2--4-4-4-4-4-4-|
|-0--2--2-2-2-2-0-2-2-2-2-0-0--2--4-4-4-4-4-4-|
|----0--2-2-2-0---2-2-2-0------0--2-2-2-2-2-2-|
|-------0-0-0-----0-0-0-----------------------|

Chorus

      PM p     p      PM        p     p
|-----------------------------------------|
|-----------------------------------------|
|------2-0---2-0---2-2--2-0---2-0---2-0---|
|-2-2--2-0-2-2-0-2-2-2--2-0-2-2-0-2-2-0-2-| x2 1st chorus
|-2-2--0---2-0---2-0-0-00---2-0---2-0---2-| x4 2nd chorus
|-0-0-0----0-----0----------0-----0-----0-|

Bridge

        b   h v~~~      v~~~  v~~~  p           PH/v          h b  p
|-------3-0-------------------------------------------------0-3-3--0-0---|
|-----------3-3---------3---0-----------------------------3----------0---|
|-----------------------------2---2-0--------------------------------x---|
|-2-2-2-----------2-2-2---------------2-2-2-0-2-2---2-2-2------------2---|
|-2-2-2-----------2-2-2---------------2-2-2---------2-2-2------------2---|
|-0-0-0-----------0-0-0---------------0-0-0---------0-0-0------------0---|

Intro part 2 (*until gap*) x2
Verse x3 then pickslide
Pre-chorus x1
Chorus x6

Outro

|--------------------|         |---------------------|
|-------3-3----------|         |-------3-------------|
|-------2-2-2--2-0---|         |-------2---2---------|
|-2-2-2-0-0-2--2-0-2-| x3 then |-2-2-2-0-0-2-----2-2-|
|-2-2-2-----0--0---2-|         |-2-2-2-----0-----2-2-|
|-0-0-0------------0-|         |-0-0-0-----------0-0-|

great band, great song, enjoy!
            
Submit corrections


        Runnin' Wild lessons Hard to play? Try these video lessons and learn fast Runnin' Wild lessons
        
↑ Back to top | Tablatures and chords for acoustic guitar and electric guitar, ukulele, drums are parodies/interpretations of the original songs. You may use it for private study, scholarship, research or language learning purposes only