» » »

Airbourne - Stand Up For Rock 'n' Roll Tabs

Artists:  A B C D E F G H I J K L M N O P Q R S T U V W X Y Z # 

Stand Up For Rock 'n' Roll Tabs

(ver. 1) Click to play this song!
Airbourne
 Rating:
4/5 (4 votes)

 Stand Up For Rock 'n' Roll lessons Tabs too difficult? Try these video lessons and learn fast
 
                Stand up for rock n roll by airbourne


E-------------------------------------------------------|
B--7-------7-------7-------7----------------------------|
G----6-7-----6-7-----6-7-----6-7------------------------|
D--------9-------9-------9-------9----------------------|
A-------------------------------------------------------|
E-------------------------------------------------------|

E-------------------------------------------------------|
B-------------------------------------------------------|
G-------------------------------------------------------|
D--4----------------------------------------------------|
A--2---------------5------------------------------------|
E------------------3------------------------------------|

E-------------------------------------------------------|
B--8-------8-------8-------8----------------------------|
G----6-7-----6-7-----6-7-----6-7------------------------|
D--------9-------9-------9-------9----------------------|
A-------------------------------------------------------|
E-------------------------------------------------------|

E-------------------------------------------------------|
B-------------------------------------------------------|
G-------------------------------------------------------|
D--4----------------------------------------------------|
A--2----------------5-----------------------------------|
E-------------------3-----------------------------------|

E-------------------------------------------------------|
B--7-------7-------7-------7----------------------------|
G----6-7-----6-7-----6-7-----6-7------------------------|
D--------9-------9-------9-------9----------------------|
A-------------------------------------------------------|
E-------------------------------------------------------|

E-------------------------------------------------------|
B-------------------------------------------------------|
G-------------------------------------------------------|
D-------------------------------------------------------|
A--2----------------5-----------------------------------|
E--0----------------3-----------------------------------|

E-------------------------------------------------------|
B--8-------8-------8-------8----------------------------|
G----6-7-----6-7-----6-7-----6-7------------------------|
D--------9-------9-------9-------9----------------------|
A-------------------------------------------------------|
E-------------------------------------------------------|

E-------------------------------------------------------|
B-------------------------------------------------------|
G-------------------------------------------------------|
D-------------------------------------------------------|
A--2----------------5-----------------------------------|
E--0----------------3-----------------------------------|

E-------------------------------------------------------|
B--9-------9-------9-------9----------------------------|
G----8-9-----8-9-----8-9-----8-9------------------------|
D--------9-------9-------9-------9----------------------|
A-------------------------------------------------------|
E-------------------------------------------------------|

E-------------------------------------------------------|
B-------------------------------------------------------|
G--4----------------------------------------------------|
D--4----------------------------------------------------|
A--2--2--2--2--2--2--2--2--2--2--2--2--2--2--2----------|
E-------------------------------------------------------|

E-------------------------------------------------------|
B--8-------8-------8-------8----------------------------|
G----6-7-----6-7-----6-7-----6-7------------------------|
D--------9-------9-------9-------9----------------------|
A-------------------------------------------------------|
E-------------------------------------------------------|

E--3----------------------------------------------------|
B--3----------------------------------------------------|
G--0----------------------------------------------------|
D--0----------------------------------------------------|
A-------------------------------------------------------|
E--3--3--3--3--3--3--3--3--3--3--3--3--3--3--3----------|

E-------------------------------------------------------|
B--9-------9-------9-------9----------------------------|
G----8-9-----8-9-----8-9-----8-9------------------------|
D--------9-------9-------9-------9----------------------|
A-------------------------------------------------------|
E-------------------------------------------------------|

E-------------------------------------------------------|
B-------------------------------------------------------|
G--4----------------------------------------------------|
D--4----------------------------------------------------|
A--2--2--2--2--2--2--2--2--2--2--2--2--2--2--2----------|
E-------------------------------------------------------|

E-------------------------------------------------------|
B--8-------8-------8-------8----------------------------|
G----6-7-----6-7-----6-7-----6-7------------------------|
D--------9-------9-------9-------9----------------------|
A-------------------------------------------------------|
E-------------------------------------------------------|

E--3----------------------------------------------------|
B--3----------------------------------------------------|
G--0----------------------------------------------------|
D--0----------------------------------------------------|
A-------------------------------------------------------|
E--3--3--3--3--3--3--3--3--3--3--3--3--3--3--3----------|

E-------------------------------------------------------|
B--7-------7-------7-------7----------------------------|
G----6-7-----6-7-----6-7-----6-7------------------------|
D--------9-------9-------9-------9----------------------|
A-------------------------------------------------------|
E-------------------------------------------------------|

E-------------------------------------------------------|
B-------------------------------------------------------|
G--1----------------------------------------------------|
D--2----------------------------------------------------|
A--2----------------------------------------------------|
E--0--0--0--0--0--0--0--0--0--0--0--0--0--0--0----------|

E-------------------------------------------------------|
B--8-------8-------8-------8----------------------------|
G----6-7-----6-7-----6-7-----6-7------------------------|
D--------9-------9-------9-------9----------------------|
A-------------------------------------------------------|
E-------------------------------------------------------|

E--3----------------------------------------------------|
B--3----------------------------------------------------|
G--0----------------------------------------------------|
D--0----------------------------------------------------|
A-------------------------------------------------------|
E--3--3--3--3--3--3--3--3--3--3--3--3--3--3--3----------|

E-------------------------------------------------------|
B-------------------------------------------------------|
G--4----4--4-----2-----2-----4--2--4----4-----2---------|
D--4----4--4--2--2--2--2--2--4--2--4----4--2--2--2------|
A--2----2--2--2--0--2--0--2--2--0--2—---2--2--0--2------|
E-------------0-----0-----0----------------0-----0------|






E-------------------------------------------------------|
B--3----------------------------------------------------|
G--2--2-----2--4----4-----2-------2-----4--2--4---------|
D--0--2--2--2--4----4--2--2--2----2--2--4--2--4---------|
A-----0--2--0--2----2--2--0--2----0--2--2---------------|
E--------0-------------0-----0-------0------------------|

E-------------------------------------------------------|
B--------------3----------------------------------------|
G--4-----2-----2--2-----2--4----------------------------|
D--4--2--2--2--0--2--2--2--4----------------------------|
A--2--2--0--2-----0--2--0--2----------------------------|
E-----0-----0--------0----------------------------------|

E--------7-7---7-7---7-7---7-7---7------7-----------------|
B--9-(9)-7-7-9-7-7-9-7-7-9-7-7-9-7-9------10-7------------|
G------------------------------------(9)-------9-9-7-9/7--|
D---------------------------------------------------------|
A---------------------------------------------------------|
E---------------------------------------------------------|

E---------------------------------------------------------|
B---------------------------------------------------------|
G--4-----2-----2-----4--2--4----4-----2-----2-----4—-2--4-|
D--4--2--2--2--2--2--4--2--4----4--2--2--2--2--2--4--2--4-|
A--2--2--0--2--0--2--2--0--2----2--2--0--2--0--2--2--0--2-|
E-----0-----0-----0----------------0-----0-----0----------|

E---------------------------------------------------------|
B--7-------7--7---7-7---7-7---7-------7--9----------------|
G--7-------7--7---7-7---7-7---7-------7--9----------------|
D----9-7-9------9-----9-----9---9-7-9---------------------|
A---------------------------------------------------------|
E---------------------------------------------------------|

E-----------------------------------------------------------|
B--------------3--------------------------------------------|
G--4-----2-----2--2-------2--4----4-----2-----2-----4—-2--4-|
D--4--2--2--2--0--2--2----2--4----4--2--2--2--2--2--4--2--4-|
A--2--2--0--2-----0--2----0--2----2--2--0--2--0--2--2--0--2-|
E-----0-----0--------0---------------0-----0-----0----------|

E-------------------------------------------------------|
B----------------3--------------------------------------|
G--4-----2-------2--2-----2--4--------------------------|
D--4--2--2--2----0--2--2--2--4--------------------------|
A--2--2--0--2-------0--2--0--2--------------------------|
E-----0-----0----------0--------------------------------|

Pre chorus

E-------------------------------------------------------|
B-------3----------------------------------------3------|
G--2----2----1----2--4----4---4--4--2---2--2--2--2------|
D--2----0----2----2--4----4---4--4--2---2--2--2--0------|
A--0---------2----0--2----2---2--2--0---0--0--0---------|
E------------0------------------------------------------|

E------------------------------------------------|
B--3--3--3----3----------------------------------|
G--2--2--2----2--2--1--2--4----------------------|
D--0--0--0----0--2--2--2--4----------------------|
A----------------0--2--0--2----------------------|
E-------------------0----------------------------|

chorus

E--------------------------------------------|
B--------------------------------------------|
G--4-----2-----2--4--2--4----4-----2---------|
D--4--2--2--2--2--4--2--4----4--2--2--2------|
A--2--2--0--2--0--2--0--2----2--2--0--2------|
E-----0-----0-------------------0-----0------|



E-------------------------------------------------------------------------|
B--3-----------------------------------------------------------3----------|
G--2--2-----2--4----4-----2-------2-----4--2--4----4-----2-----2--2-------|
D--0--2--2--2--4----4--2--2--2----2--2--4--2--4----4--2--2--2--0--2--2----|
A-----0--2--0--2----2--2--0--2----0--2--2--0--2----2--2--0--2-----0--2----|
E--------0-------------0-----0-------0----------------0-----0--------0----|


E------------------------------------------------------|
B------------------------------------------------------|
G--2--4------------------------------------------------|
D--2--4------------------------------------------------|
A--0--2------------------------------------------------|
E------------------------------------------------------|

Verse

E---------------------------------------------------------|
B-------------------------------------------3-------------|
G--4-----2-----2-----4--2--4----4-----2-----2--2-----2--4-|
D--4--2--2--2--2--2--4--2--4----4--2--2--2--0--2--2--2—4--|
A--2--2--0--2--0--2--2--0--2----2--2--0--2-----0--2--0--2-|
E-----0-----0-----0----------------0-----0--------0-------|

E--------------|
B--7-----------|
G--7-----------|
D----9-7-9-----|
A--------------|
E--------------|

E-------------------------------------------------------------|
B-------------------------------------------3-----------------|
G--4-----2-----2-----4--2--4----4-----2-----2--2-----2--4-----|
D--4--2--2--2--2--2--4--2--4----4--2--2--2--0--2--2--2--4-----|
A--2--2--0--2--0--2--2--0--2----2--2--0--2-----0--2--0--2-----|
E-----0-----0-----0----------------0-----0--------0-----------|

E----------------------|
B------7---------------|
G------7---------------|
D--7-9---9-7-9----7-7--|
A----------------------|
E----------------------|

E-------------------------------------------------------------|
B-------------------------------------------3-----------------|
G--4-----2-----2-----4--2--4----4-----2-----2--2-----2--4-----|
D--4--2--2--2--2--2--4--2--4----4--2--2--2--0--2--2--2--4-----|
A--2--2--0--2--0--2--2--0--2----2--2--0--2-----0--2--0--2-----|
E-----0-----0-----0----------------0-----0--------0-----------|

E--------------|
B--7-----------|
G--7-----------|
D----9-7-9-----|
A--------------|
E--------------|

E-------------------------------------------------------------|
B-------------------------------------------3-----------------|
G--4-----2-----2-----4--2--4----4-----2-----2--2-----2--4-----|
D--4--2--2--2--2--2--4--2--4----4--2--2--2--0--2--2--2--4-----|
A--2--2--0--2--0--2--2--0--2----2--2--0--2-----0--2--0--2-----|
E-----0-----0-----0----------------0-----0--------0-----------|

E----------------------|
B------7---------------|
G------7---------------|
D--7-9---9-7-9----7-7--|
A----------------------|
E----------------------|



Pre chorus

E-------------------------------------------------------|
B-------3----------------------------------------3------|
G--2----2----1----2--4----4---4--4--2---2--2--2--2------|
D--2----0----2----2--4----4---4--4--2---2--2--2--0------|
A--0---------2----0--2----2---2--2--0---0--0--0---------|
E------------0------------------------------------------|

E------------------------------------------------|
B--3--3--3----3----------------------------------|
G--2--2--2----2--2--1--2--4----------------------|
D--0--0--0----0--2--2--2--4----------------------|
A----------------0--2--0--2----------------------|
E-------------------0----------------------------|

E---------------7-7---------------------------------------|
B--7------------7-7--------7------------------------------|
G--7----------9------------7------------------------------|
D----9-7-9-------------7-9---9-7-9----7-7-----------------|
A---------------------------------------------------------|
E---------------------------------------------------------|


chorus

E-----------------------------------------------|
B-----------------------------------------------|
G--4-----2-----2--4--2--4----4-----2------------|
D--4--2--2--2--2--4--2--4----4--2--2--2---------|
A--2--2--0--2--0--2--0--2----2--2--0--2---------|
E-----0-----0-------------------0-----0---------|

E-------------------------------------------------------------------------|
B--3-----------------------------------------------------------3----------|
G--2--2-----2--4----4-----2-------2-----4--2--4----4-----2-----2--2-------|
D--0--2--2--2--4----4--2--2--2----2--2--4--2--4----4--2--2--2--0--2--2----|
A-----0--2--0--2----2--2--0--2----0--2--2--0--2----2--2--0--2-----0--2----|
E--------0-------------0-----0-------0----------------0-----0--------0----|

E-------------------------------------------------------|
B-------------------------------------------------------|
G--2--4-------------------------------------------------|
D--2--4-------------------------------------------------|
A--0--2-------------------------------------------------|
E-------------------------------------------------------|

(2:42)
E---------------------------------------------------------|
B---------------------------------------------------------|
G------------------------2--2-2---------------------------|
D--4----4-4--4-4-4-2------------2--2-2-4------------------|
A---------------------4-----------------------------------|
E---------------------------------------------------------|

E---------------------------------------------------------|
B---------------------------------------------------------|
G-------------------2--2-2-----------------------------2--|
D--4--4--4-4-4-2-----------2--2-2-4----4--4-4-4-4-2-------|
A-----------------4---------------------------------4-----|
E---------------------------------------------------------|

E-----------------------------------------------14--------------------------|
B---------------------------------------------14---17-----------------------|
G--2-2---------------------------------16-(16)----------------7-9-9-7-9-7---|
D------2--2-2-16--16-16-16-16-16-14-------------------7-9—(9)---------------|
A-----------------------------------16--------------------------------------|
E---------------------------------------------------------------------------|

E-------------------------------------7------7---10--10-7----7--------------|
B---------------7--7---7-7---7-9---10---7-10---7----------10----10-7--------|
G--9-7----------7--7---7-7---7-9-7-----------------------------------9------|
D------9-9--7-9------9-----9------------------------------------------------|
A---------------------------------------------------------------------------|
E---------------------------------------------------------------------------|

E----7----------------------------------------------------------------------|
B------10-7----------------------7-7---------x-x--15--15----------17--------|
G--9--------9--7-----9-7---7-----7-7-------7-------------16-14-16-----------|
D----------------9-7-----9---7-9-----9-7-9----------------------------------|
A---------------------------------------------------------------------------|
E---------------------------------------------------------------------------|

E---------------14----14----------14----17--17-17-----|
B--17--------------------------------14---------------|
G-----16-14-16-----------16-14-16---------------------|
D-----------------------------------------------------|
A-----------------------------------------------------|
E-----------------------------------------------------|

E-------------------------------------------------------|
B-------3----------------------------------------3------|
G--2----2----1----2--4----4---4--4--2---2--2--2--2------|
D--2----0----2----2--4----4---4--4--2---2--2--2--0------|
A--0---------2----0--2----2---2--2--0---0--0--0---------|
E------------0------------------------------------------|

E------------------------------------------------|
B--3--3--3----3----------------------------------|
G--2--2--2----2--2--1--2--4----------------------|
D--0--0--0----0--2--2--2--4----------------------|
A----------------0--2--0--2----------------------|
E-------------------0----------------------------|

chorus

E-----------------------------------------------|
B-----------------------------------------------|
G--4-----2-----2--4--2--4----4-----2------------|
D--4--2--2--2--2--4--2--4----4--2--2--2---------|
A--2--2--0--2--0--2--0--2----2--2--0--2---------|
E-----0-----0-------------------0-----0---------|

E-------------------------------------------------------------------------|
B--3-----------------------------------------------------------3----------|
G--2--2-----2--4----4-----2-------2-----4--2--4----4-----2-----2--2-------|
D--0--2--2--2--4----4--2--2--2----2--2--4--2--4----4--2--2--2--0--2--2----|
A-----0--2--0--2----2--2--0--2----0--2--2--0--2----2--2--0--2-----0--2----|
E--------0-------------0-----0-------0----------------0-----0--------0----|

E-------------------------------------------------------|
B-------------------------------------------------------|
G--2--4-------------------------------------------------|
D--2--4-------------------------------------------------|
A--0--2-------------------------------------------------|
E-------------------------------------------------------|

Fade out
            
Submit corrections


        Stand Up For Rock 'n' Roll lessons Hard to play? Try these video lessons and learn fast Stand Up For Rock 'n' Roll lessons
        
↑ Back to top | Tablatures and chords for acoustic guitar and electric guitar, ukulele, drums are parodies/interpretations of the original songs. You may use it for private study, scholarship, research or language learning purposes only