Home » A » Against The Current »

Against The Current - Running With The Wild Things Tabs

Artists:  A B C D E F G H I J K L M N O P Q R S T U V W X Y Z # 

Running With The Wild Things Tabs

(ver. 1) Click to play this song!
Against The Current
 Rating:
4.3/5 (24 votes)
                [Intro]

e|-----------------------------------------------------------------------|
B|-----------------------------------------------------------------------|
G|-----------------------------------------------------------------------|
D|-----------------------------------------------------------------------| 
A|----------------7-------7-------7-------7---x1-------------------------|
E|------------2-2---2-2-2---2-2-2---2-2-2--------------------------------|

e|---------------|-----------------|-----------------|-------------------|
B|---------------|-----------------|-----------------|-------------------|
G|---------------|-----------------|-----------------|-------------------|
D|---------------|-----------------|-----------------|-------------------|
A|-----7-------7-|-------7-------7-|-----7-------7---|-----9-------9--x2-|
E|-2-2---2-2-2---|-2-2-2---2-2-2---|-5-5---5-5-5---5-|-7-7---7-7-7-------|



[Verse]

e|-----------------------------------------------------------------------|
B|-----------------------------------------------------------------------|
G|----------------9------------------------------------------------------|
D|---4------7-----9-x8----Play 4 Times-----------------------------------|
A|---4-x16--7-x8--7------------------------------------------------------|
E|---2------5------------------------------------------------------------|

[Pre-Chorus]

e|-----------------------------------------------------------------------|
B|-----------------------------------------------------------------------|
G|---7---9---------------------------------------------------------------|
D|---7---9---4----Play 2 Times-------------------------------------------|
A|---5---7---4-----------------------------------------------------------|
E|-----------2-----------------------------------------------------------|


[Chorus]

e|-----------------------------------------------------------------------|
B|-----------------------------------------------------------------------|
G|---7-----------9-------------------------------------------------------|
D|---7-x8--7-----9-x8--9------Play 3 Times-------------------------------|
A|---5-----7-x8--7-----9-x8----------------------------------------------|
E|---------5-----------7-------------------------------------------------|

e|-----------------------------------------------------------------------|
B|-----------------------------------------------------------------------|
G|---7-----------9-------------------------------------------------------|
D|---7-x8--7-----9-x16---------------------------------------------------|
A|---5-----7-x8--7-------------------------------------------------------|
E|---------5-------------------------------------------------------------|

[Intro Again]

e|---------------|-----------------|-----------------|-------------------|
B|---------------|-----------------|-----------------|-------------------|
G|---------------|-----------------|-----------------|-------------------|
D|---------------|-----------------|-----------------|-------------------|
A|-----7-------7-|-------7-------7-|-----7-------7---|-----9------9-x2---|
E|-2-2---2-2-2---|-2-2-2---2-2-2---|-5-5---5-5-5---5-|-7-7---7-7-7-------|

[Verse]

e|-----------------------------------------------------------------------|
B|-----------------------------------------------------------------------|
G|----------------9------------------------------------------------------|
D|---4------7-----9-x8----Play 2 Times-----------------------------------|
A|---4-x16--7-x8--7------------------------------------------------------|
E|---2------5------------------------------------------------------------|

[Pre-Chorus]

e|-----------------------------------------------------------------------|
B|-----------------------------------------------------------------------|
G|---7---9---------------------------------------------------------------|
D|---7---9---4-----Play 2 Times------------------------------------------|
A|---5---7---4-x8--------------------------------------------------------|
E|-----------2-----------------------------------------------------------|

[Chorus]

e|-----------------------------------------------------------------------|
B|-----------------------------------------------------------------------|
G|---7-----------9-------------------------------------------------------|
D|---7-x8--7-----9-x8--9------Play 3 Times-------------------------------|
A|---5-----7-x8--7-----9-x8----------------------------------------------|
E|---------5-----------7-------------------------------------------------|

e|-----------------------------------------------------------------------|
B|-----------------------------------------------------------------------|
G|---7-----------9-------------------------------------------------------|
D|---7-x8--7-----9-x16---------------------------------------------------|
A|---5-----7-x8--7-------------------------------------------------------|
E|---------5-------------------------------------------------------------|

[Intro Again..]

e|---------------|-----------------|-----------------|-------------------|
B|---------------|-----------------|-----------------|-------------------|
G|---------------|-----------------|-----------------|-------------------|
D|---------------|-----------------|-----------------|-------------------|
A|-----7-------7-|-------7-------7-|-----7-------7---|----9-------9-x2---|
E|-2-2---2-2-2---|-2-2-2---2-2-2---|-5-5---5-5-5---5-|-7-7---7-7-7-------|

[Bridge]

No guitar chords as such but there is a bass which I've transfered onto guitar. 
It's not accurate by far but you could improvise!

e|-----------------------------------|-----------------------------------|
B|-----------------------------------|-----------------------------------|
G|-----------------------------------|-----------------------------------|
D|-----------------------------------|-----------------------------------|
A|-----------------------------------|--------------------------------5--|
E|--2-2-2-0--2-2-2-0--2-2-2-0--2-2-4-|-5-5-5-2--5-5-5-2--5-5-5-2--5-5----|  }
                                                                            }Play 4 Times
e|-----------------------------------|-----------------------------------|  }
B|-----------------------------------|-----------------------------------|
G|-----------------------------------|-----------------------------------|
D|-----------------------------------|-----------------------------------|
A|--7-7-7-5--7-7-7-5--7-7-7-5--7-7-5-|-----------------------------------|
E|-----------------------------------|-7-7-7-5--7-7-7-5--7-7-7-5--7-7-5--|

e|-----------------------------------------------------------------------|
B|-----------------------------------------------------------------------|
G|-----------------------------------------------------------------------|
D|-----------------------------------------------------------------------|
A|-----------------------------------------------------------------------|
E|--7-7-7-5--7-7-7-5--7-7-7-5--7-7-7-5-----------------------------------|

[Chorus]

e|-----------------------------------------------------------------------|
B|-----First Sung Line Is Just Drums ------------------------------------|
G|---7-----------9-------------------------------------------------------|
D|---7-x8--7-----9-x8--9------Play 2 Times-------------------------------|
A|---5-----7-x8--7-----9-x8----------------------------------------------|
E|---------5-----------7-------------------------------------------------|

e|-----------------------------------------------------------------------|
B|-----------------------------------------------------------------------|
G|---7-----------9-------------------------------------------------------|
D|---7-x8--7-----9-x16---------------------------------------------------|
A|---5-----7-x8--7-------------------------------------------------------|
E|---------5-------------------------------------------------------------|

[Outro = Same as the intro..]

e|---------------|-----------------|-----------------|-------------------|
B|---------------|-------Don't Forget The Ooh's!-----|-------------------|
G|---------------|-----------------|-----------------|-------------------|
D|---------------|-----------------|-----------------|-------------------|
A|-----7-------7-|-------7-------7-|-----7-------7---|-----9-------9-x2--|
E|-2-2---2-2-2---|-2-2-2---2-2-2---|-5-5---5-5-5---5-|-7-7---7-7-7-------|
            
Submit corrections

↑ Back to top | Tablatures and chords for acoustic guitar and electric guitar, ukulele, drums are parodies/interpretations of the original songs. You may use it for private study, scholarship, research or language learning purposes only