Home » A » Against Me! »

Against Me! - White People For Peace Tabs

Artists:  A B C D E F G H I J K L M N O P Q R S T U V W X Y Z # 

White People For Peace Tabs

(ver. 1) Click to play this song!
Against Me!
I'm pretty sure this is right. 
the rhythms are not correct so you just have to feel it.
Hope it helps.

Against Me! - White People for Peace


Lead during intro
e|--------------------------------------------------------------------|
B|--------------------------------------------------------------------|
G|--------------------------------------------------------------------|
D|---------------------------------------------------8h10p8-----8h10--|
A|-8h10-101010-8-------11---11-10---10-8-10-8---8-10--------10--------|
E|---------------11-8-------------------------------------------------|



|----------------------------------------------------------------------|
|----------------------------------------------------------------------|
|-----------7-7-7h8-8--8-8-8-10-10-10h12-12--12-10-12-10--8-7--3p0---5-|
|--10-10-10--------------------------------------------------------5---|
|----------------------------------------------------------------------|
|----------------------------------------------------------------------|


Rhythm during intro
|-----------------|-----------------|
|-----------------|-----------------|
|----------8------|----------8------|
|-10---6---8---8--|-10---6---8---8--|
|-10---6---6---8--|-10---6---6---8--|
|-8----4-------6--|-8----4-------6--|



VERSE
|---------|----------|----------------------|----------------------|
|---------|----------|----------------------|----------------------|
|---------|----------|---------------8------|---------------8------|
|-10---6--|--10---6--|--8---10---6---8---8--|--8---10---6---8---8--|
|-10---6--|--10---6--|--8---10---6---6---8--|--8---10---6---6---8--|
|-8----4--|--8----4--|--6---8----4-------6--|--6---8----4-------6--|


CHORUS
|-----------------|
|-----------------|
|----------8------|
|-10---6---8---8--|
|-10---6---6---8--|
|-8----4-------6--|



lead during Fill
|--------------------------------------------------6h8p6---6h8-|
|----------------------------------------------6-8-------8-----|
|--------------------------------------------------------------|
|--------------------------------------------------------------|
|-8h10-101010-8-------11---11-10---10-8-10-8-------------------|
|---------------11-8-------------------------------------------|


Rhythm during fill
|-----------------|
|-----------------|
|----------8------|
|-10---6---8---8--|
|-10---6---6---8--|
|-8----4-------6--|



VERSE
|---------|----------|----------------------|----------------------|
|---------|----------|----------------------|----------------------|
|---------|----------|---------------8------|---------------8------|
|-10---6--|--10---6--|--8---10---6---8---8--|--8---10---6---8---8--|
|-10---6--|--10---6--|--8---10---6---6---8--|--8---10---6---6---8--|
|-8----4--|--8----4--|--6---8----4-------6--|--6---8----4-------6--|


CHORUS
|-----------------|-----------------|
|-----------------|-----------------|
|----------8------|----------8------|
|-10---6---8---8--|-10---6---8---8--|
|-10---6---6---8--|-10---6---6---8--|
|-8----4-------6--|-8----4-------6--|


SOLO
|---------------------------------------------|
|-13--11-11-11h13-11-11-13--11-11-11h13-11-11-|
|---------------------------------------------|
|---------------------------------------------|
|---------------------------------------------|
|---------------------------------------------|


|--------------------------------------|
|--------11----------------------------|
|-12--10----12b--10-10--10\8-8\7-7\5-5-|
|--------------------------------------|
|--------------------------------------|
|--------------------------------------|


Rhythm during solo
|-----------------|
|-----------------|
|----------8------|
|-10---6---8---8--|
|-10---6---6---8--|
|-8----4-------6--|



VERSE
|----------------------|----------------------|
|----------------------|----------------------|
|---------------8------|---------------8------|
|--8---10---6---8---8--|--8---10---6---8---8--|
|--8---10---6---6---8--|--8---10---6---6---8--|
|--6---8----4-------6--|--6---8----4-------6--|



CHORUS
|-----------------|-----------------|-----------------|-----------------|
|-----------------|-----------------|-----------------|-----------------|
|----------8------|----------8------|----------8------|----------8------|
|-10---6---8---8--|-10---6---8---8--|-10---6---8---8--|-10---6---8---8--|
|-10---6---6---8--|-10---6---6---8--|-10---6---6---8--|-10---6---6---8--|
|-8----4-------6--|-8----4-------6--|-8----4-------6--|-8----4-------6--|

Ending
|--------|
|--------|
|--------|
|-10--10-|
|-10--10-|
|-8---8--|
            
Submit corrections

↑ Back to top | Tablatures and chords for acoustic guitar and electric guitar, ukulele, drums are parodies/interpretations of the original songs. You may use it for private study, scholarship, research or language learning purposes only