Home » A » Against Me! »

Against Me! - Cavalier Eternal Tabs

Artists:  A B C D E F G H I J K L M N O P Q R S T U V W X Y Z # 

Cavalier Eternal Tabs

(ver. 1) Click to play this song!
Against Me!
-------------------------------------------------------------------------------
-------------------------------------------------------------------------------

Tuning: Standard

Intro:

Each hyphen is an eighth note to indicate strumming pattern.

e|5-x5-5xx5-x5-5xx5-x5-5xx5-x5-5xx|
B|5-x5-5xx5-x5-5xx5-x5-5xx5-x5-5xx|
G|6-x6-6xx6-x6-6xx6-x6-6xx6-x6-6xx|
D|7-x7-7xx7-x7-7xx7-x7-7xx7-x7-7xx|
A|7-x7-7xx7-x7-7xx7-x7-7xx7-x7-7xx|
E|5-x5-5xx5-x5-5xx5-x5-5xx5-x5-5xx|

Strumming is the same for the rest of the song.

Chorus:

  A       D7      A       A       A       A       E       E
e|5-------5-------5-------5-------5-------5-----------------------|
B|5-------7-------5-------5-------5-------5-------9-------9-------|
G|6-------5-------6-------6-------6-------6-------9-------9-------|
D|7-------7-------7-------7-------7-------7-------9-------9-------|
A|7-------5-------7-------7-------7-------7-------7-------7-------|
E|5---------------5-------5-------5-------5-----------------------|

  A       D7      A       A       A       E       A  A/G# F# 
e|5-------5-------5-------5-------5--------------(5)-(5)--2-------|
B|5-------7-------5-------5-------5-------9------(5)-(5)--2-------|
G|6-------5-------6-------6-------6-------9-------6---6---3-------|
D|7-------7-------7-------7-------7-------9-------7---7---4-------|
A|7-------5-------7-------7-------7-------7-------7---7---4-------|
E|5---------------5-------5-------5---------------5---4---2-------|

  F#      D       E       A       A
e|2------(5)-----(7)------5-------5-------|
B|2-------7-------9-------5-------5-------|
G|3-------7-------9-------6-------6-------|
D|4-------7-------9-------7-------7-------|
A|4-------5-------7-------7-------7-0-2-4-|
E|2-----------------------5-------5-------|

Verse:

  D       D       A       A       Bm      Bm      E       E
e(5)-----(5)------5-------5-------7-------7------(7)-----(7)------|
B|7-------7-------5-------5-------7-------7-------9-------9-------|
G|7-------7-------6-------6-------7-------7-------9-------9-------|
D|7-------7-------7-------7-------9-------9-------9-------9-------|
A|5-------5-------7-------7-------9-------9-------7-------7-------|
E|----------------5-------5-------7-------7-------------------0-1-|

  F#m     F#m     Bm      Bm      D       D        E       E
e|2-------2-------7-------7------(5)-----(5)------(7)-----(7)-----|
B|2-------2-------7-------7-------7-------7--------9-------9------|
G|2-------2-------7-------7-------7-------7--------9-------9------|
D|4-------4-------9-------9-------7-------7--------9-------9------|
A|4-------4-------9-------9-------5-------5--------7-------7------|
E|2-------2-------7-------7---------------------------------------|

| x  Mute note
===============================================================================
            
Submit corrections

↑ Back to top | Tablatures and chords for acoustic guitar and electric guitar, ukulele, drums are parodies/interpretations of the original songs. You may use it for private study, scholarship, research or language learning purposes only